>
 >
Guys Like You Make Us Look Bad 1

Guys Like You Make Us Look Bad 1 Guitar Tabs

Blessthefall - Guys Like You Make Us Look Bad 1 chords, tabs, tablatures, lyrics

Guitar lessons | Add/correct | Request | Top 50 tabs Artists:  A B C D E F G H I J K L M N O P Q R S T U V W X Y Z 0-9

Guys Like You Make Us Look Bad 1 Guitar Tabs – Blessthefall

CD, Sheet music, Poster

Do you like Guys Like You Make Us Look Bad 1? Share with your friends now
Bass TabsTabsTabs v2Tabs v3Tabs v4Tabs v5Tabs v6
-------------------------------------------------------------------------------
			  Guys Like You Make Us Look Bad - Blessthefall
-------------------------------------------------------------------------------

I added the second guitar. Not 100% but its a work in progress.

Tuning:DADGBe

Legend:
1 - guitar 1
2 - guitar 2
h - hammer-on
p - pull-off
x - mute note
~ - held note
. - palm mute

 [intro] x2
[1]
e|--------------------------------------------------------------------|
B|-----6h8-6h8------6h8-6h8-----------6h8-6h8------6h8-6h8------------|
G|--------------------------------------------------------------------|
D|--0-----------00-----------0-0-0-0-----------00-----------0-0-0-0---|
A|--0-----------00-----------0-0-0-0-----------00-----------0-0-0-0---|
D|--0-----------00-----------0-0-0-0-----------00-----------0-0-0-0---|
    .           ..           . . . .           ..           . . . . 
[2]	
e|--------------------------------------------------------------------|
B|--------------------------------------------------------------------|
G|--------------------------------------------------------------------|
D|--0-----------00-----------0-0-0------------00-----------0-0-0------|
A|--0-----------00-----------0-0-0------------00-----------0-0-0------|
D|--0-----------00-----------0-0-0------------00-----------0-0-0------|
    .           ..           . . .            ..           . . .  	
[1]	
e|---------------------------------|---------|             
B|--6h8-6h8------6h8-6h8-----------|-6h8-6h8-|                   
G|---------------------------------|---------|                    
D|-----------00-----------0-0-0-0--|---------|                  
A|-----------00-----------0-0-0-0--|---------|                    
D|-----------00-----------0-0-0-0--|---------|                
             ..           . . . .             
[2]
e|---------------------------------|----------------|--------------|             
B|---------------------------------|--[1st ending]--|-[2nd ending]-|                   
G|---------------------------------|----------------|--------------|                     
D|-----------00-----------0-0-0-0--|---00-000-000---|--0-0-00------|                   
A|-----------00-----------0-0-0-0--|---00-000-000---|--0-0-00------|                    
D|-----------00-----------0-0-0-0--|---00-000-000---|--0-0-00------|                 
             ..           . . . .      .. ... ...      . . ..			 
 [verse]
[1] 
e|--------------------------------------------------|
B|-------10p8-5h6-10p8-5-6------10p8-5h6-10p8-5-6---|
G|---7h9--------------------7h9---------------------| x6
D|--------------------------------------------------|
A|--------------------------------------------------|
D|--------------------------------------------------|

[2]
e|-----------------------------------------------|
B|-----------------------------------------------|
G|-----------------------------------------------| x3
D|--00---00-00---00---00-00-0--33--8------5------|
A|--00---00-00---00---00-00-0--33--8-x16--5-x16--|
D|--00---00-00---00---00-00-0--33--8------5------|
    ..   .. ..   ..   .. .. .  ..  .   

 [riff 1?]
[1]	
e|-----------------------------------|    
B|-----------------------------------|    
G|-----------------------------------| x4 
D|--00--7p0-3p0-0-5p0-3p0-0-2h3p0----|    
A|--00----------0---------0----------|    
D|--00----------0---------0----------|    
    ..          .         .           

[2]	
e|-----------------------|    
B|-----------------------|    
G|-----------------------| 
D|---0~~--0~~--0~~--0~~--|    
A|---0~~--0~~--0~~--0~~--|    
D|---0~~--0~~--0~~--0~~--|    

 [uhh riff 2] 
[1]	
e|-----------------------------------|    
B|-----------------------------------|    
G|-----------------------------------| 
D|--00--7p0-3p0-0-5p0-3p0-0-2h3p0----|    
A|--00----------0---------0----------|    
D|--00----------0---------0----------|    
    ..  . . . . . . . . . . . . .   
e|-----------------------------------|    
B|-----------------------------------|    
G|-----------------------------------| 
D|--00--7p0-3p0-0-5p0-3p0-0-2h3p0----|    
A|--00----------0---------0----------|    
D|--00----------0---------0----------|    
    ..  . . . . . . . . . . . . . 
e|--------------------------------|    
B|--------------------------------|    
G|--------------------------------| 
D|--00--7p3--0-5p0-3p0-0-2h3p0----|    
A|--00-------0---------0----------|    
D|--00-------0---------0----------|    
    ..       . . . . . . . . .  
e|--------------------------------|    
B|--------------------------------|    
G|--------------------------------| 
D|--00--7p3--0-5p0-3p0-0-2h3p0----|    
A|--00-------0---------0----------|    
D|--00-------0---------0----------|    
    ..       . . . . . . . . .  
e|-----------------------------------|    
B|-----------------------------------|    
G|-----------------------------------| 
D|--00--7p0-3p0-0-5p0-3p0-0-2h3p0----|    
A|--00----------0---------0----------|    
D|--00----------0---------0----------|    
    ..  . . . . . . . . . . . . . 
e|--------------------------------|    
B|--------------------------------|    
G|--------------------------------| 
D|--00--7p3--0-5p0-3p0-0-2h3p0----|    
A|--00-------0---------0----------|    
D|--00-------0---------0----------|    
    ..       . . . . . . . . .     
	
[2]	
|-------------------------------------|	
|-------------------------------------|	
|-------------------------------------|
|-3-----5----8----0-----3-----5----8~-|
|-3-x16-5-x8-8-x8-0-x32-3-x16-5-x8-8~-|
|-3-----5----8----0-----3-----5----8~-|
  .     .    .    .     .     .    .

  [alternating guitars]
[1] 
e|-----------------------------|
B|-----------------------------|
G|-----------------------------|
D|---00----00-------00----00---|
A|---00----00-------00----00---|
D|---00----00-------00----00---|
     ..    ..       ..    ..

[2]
e|-----------------------------|
B|-----------------------------|
G|-----------------------------|
D|------00----00000----00------|
A|------00----00000----00------|
D|------00----00000----00------|
        ..    .....    ..	 
 [verse]
[1] 
e|--------------------------------------------------|
B|-------10p8-5h6-10p8-5-6------10p8-5h6-10p8-5-6---|
G|---7h9--------------------7h9---------------------| x6
D|--------------------------------------------------|
A|--------------------------------------------------|
D|--------------------------------------------------|

[2]
e|-----------------------------------------------|
B|-----------------------------------------------|
G|-----------------------------------------------| x3
D|--00---00-00---00---00-00-0--33--8------5------|
A|--00---00-00---00---00-00-0--33--8-x16--5-x16--|
D|--00---00-00---00---00-00-0--33--8------5------|
    ..   .. ..   ..   .. .. .  ..  .   

 [clean interlude]
e|--------------------------|
B|------6~----6~----6~------|
G|------9~----9~----9~------|
D|---8-----5-----8-----5~---|
A|---8-----5-----8-----5~---|
D|---8-----5-----8-----5~---|

e|------------------------------13-13---------------------------------| 
B|------------------------13-10---------------------------------------|  
G|--9h10p9--------10h12p10------------9h10p9--------10-10~------------|  
D|--------10h12p10--------------------------10h12p10------------------|  
A|--------------------------------------------------------------------|    
D|--------------------------------------------------------------------|  
                                                                       x2    
e|------------------------------13-13---------------------------------|   
B|------------------------13-10---------------------------------------|  
G|--9h10p9--------10h12p10------------9h10p9--------------------------|  
D|--------10h12p10--------------------------10h12p10------------------|  
A|---------------------------------------------------10-10~-----------|  
D|--------------------------------------------------------------------| 

e|--------------------------------------------------------------------|
B|--------------------------------------------------------------------|
G|----10-14-12-10-9---10-14-12-10-9---10-14-12-10-9---10-14-12-1-9~---|
D|---------------12--------------12--------------12-------------12~---|
A|--------------------------------------------------------------------|
D|--------------------------------------------------------------------|
 
 [distortion]
[1] 
e|---------------------------------|
B|---------------------------------|
G|---------------------------------|
D|--00-3-0-10-00-7-0-3-0-10-0-7----|x8
A|--00---0----00---0---0----0------|
D|--00---0----00---0---0----0------|
    ..   .    ..   .   .    .

[2]
e|--------------|
B|--------------|
G|--------------|
D|--00-00-0-00--| x4
A|--00-00-0-00--|
D|--00-00-0-00--|
    .. .. . ..	

[guitar 1 has feedback]
	
[2]	
e|-----------------------|
B|-----------------------|
G|-----------------------|
D|--000-000-0-00000-0-0--| x4
A|--000-000-0-00000-0-0--|
D|--000-000-0-00000-0-0--|
    ... ... . ..... . .
   
   
   these chords are strummed 
   near the end. figure out 
   strumming yourselves.
[1]  
e|-----| e|-----|
B|-----| B|--10-|
G|--10-| G|--10-|
D|--x--| D|--x--|
A|--8--| A|--8--|
D|-----| D|-----|

 then
[guitar 2 is doing this while guitar 1 does those chords] 
e|---------------|
B|---------------|
G|---------------|
D|--000-000-0-0--|
A|--000-000-0-0--|
D|--000-000-0-0--|
    ... ... . .





Comments


Popular Blessthefall tabs & chords
40 Days Bass Tabs
Rise Up 2 Bass Tabs
Times Like These Bass Tabs
Rise Up 3 Chords
Stay Still Intro 2 Tabs
Times Like These 1 Tabs
Wait For Tomorrow 1 Tabs
Whats Left Of Me 1 Tabs
Witness Tabs
Witness Intro Tabs


Song lyrics



↑ Back to top | Tablatures and chords are parodies/interpretations of the original songs. You may use it for private study, scholarship, research or language learning purposes only
© 2014 AZChords.com Contact us | Privacy policy | DMCA | Add/correct tabs | Request tabs | Top 50 tabs