>
 >
Guys Like You Make Us Look Bad

Guys Like You Make Us Look Bad Guitar Tabs

Blessthefall - Guys Like You Make Us Look Bad chords, tabs, tablatures, lyrics

Guitar lessons | Add/correct | Request | Top 50 tabs Artists:  A B C D E F G H I J K L M N O P Q R S T U V W X Y Z 0-9

Guys Like You Make Us Look Bad Guitar Tabs – Blessthefall

CD, Sheet music, Poster

Do you like Guys Like You Make Us Look Bad? Share with your friends now
Bass TabsTabsTabs v2Tabs v3Tabs v4Tabs v5Tabs v6
I made this in power tab but havent figured 
out how to upload powertab files yet.
so any help would be much appreciated. 
this is also my first tab and is extremly accurate.
 
 Q=120
 4/4
  Gtrs I, II
|-------------------------------------|-------------------------------------|
|-------------------------------------|-------------------------------------|
|---10-12-10-12-----10-12-10-12-------|---10-12-10-12-----10-12-10-12-------|
|-0-------------0-0-------------0-0-0-|-0-------------0-0-------------0-0-0-|
|-0-------------0-0-------------0-0-0-|-0-------------0-0-------------0-0-0-|
|-0-------------0-0-------------0-0-0-|-0-------------0-0-------------0-0-0-|


|-------------------------------------|--------------------------|
|-------------------------------------|--------------------------|
|---10-12-10-12-----10-12-10-12-------|--------------------------|
|-0-------------0-0-------------0-0-0-|-0-0--0-0--0-0--0-0-------|
|-0-------------0-0-------------0-0-0-|-0-0--0-0--0-0--0-0-------|
|-0-------------0-0-------------0-0-0-|-0-0--0-0--0-0--0-0-------|


|-------------------------------------|-------------------------------------|
|-------------------------------------|-------------------------------------|
|---10-12-10-12-----10-12-10-12-------|---10-12-10-12-----10-12-10-12-------|
|-0-------------0-0-------------0-0-0-|-0-------------0-0-------------0-0-0-|
|-0-------------0-0-------------0-0-0-|-0-------------0-0-------------0-0-0-|
|-0-------------0-0-------------0-0-0-|-0-------------0-0-------------0-0-0-|


|-------------------------------------|-----------------------|
|-------------------------------------|-----------------------|
|---10-12-10-12-----10-12-10-12-------|-----------------------|
|-0-------------0-0-------------0-0-0-|-0-0--0-0--0-0--0-0----|
|-0-------------0-0-------------0-0-0-|-0-0--0-0--0-0--0-0----|
|-0-------------0-0-------------0-0-0-|-0-0--0-0--0-0--0-0----|


    Gtr I
||-------------------------------------|-------------------------------------|
||o------------------------------------|-------------------------------------|
||-------------------------------------|-------------------------------------|
||--0-0----------0-0----0-0------------|-0-0----------0-0----0-0---10--------|
||o-0-0----------0-0----0-0------------|-0-0----------0-0----0-0---10--------|
||--0-0----------0-0----0-0------------|-0-0----------0-0----0-0---10--------|
|
|   Gtr II
||-------------------------------------|-------------------------------------|
||o-----8h10p8-------8h10p8------------|-----8h10p8-------8h10p8-------------|
||--7h9--------9-7h9--------9-9p7-10p7-|-7h9--------9-7h9--------9--9p7-10p7-|
||-------------------------------------|-------------------------------------|
||o------------------------------------|-------------------------------------|
||-------------------------------------|-------------------------------------|


                                                                            3x
|------------------------------------|--------------------------------------||
|------------------------------------|-------------------------------------o||
|------------------------------------|--------------------------------------||
|-8-8-8--8-8-8-8-8-8--8-8-8-8-8--8-8-|-5-5-5--5-5-5-5-5-5--5-5-5-5-5--5-5---||
|-8-8-8--8-8-8-8-8-8--8-8-8-8-8--8-8-|-5-5-5--5-5-5-5-5-5--5-5-5-5-5--5-5--o||
|-8-8-8--8-8-8-8-8-8--8-8-8-8-8--8-8-|-5-5-5--5-5-5-5-5-5--5-5-5-5-5--5-5---||
|
|                                                                           3x
|------------------------------------|--------------------------------------||
|-----8h10p8-------8h10p8------------|-----8h10p8-------8h10p8-------------o||
|-7h9--------9-7h9--------9-9p7-10p7-|-7h9--------9-7h9--------9-9p7-10p7---||
|------------------------------------|--------------------------------------||
|------------------------------------|-------------------------------------o||
|------------------------------------|--------------------------------------||


|---------------------------------|---------------------------------|
|---------------------------------|---------------------------------|
|---------------------------------|---------------------------------|
|-0-------------------------------|-0-------------------------------|
|-0-------------------------------|-0-------------------------------|
|-0-------------------------------|-0-------------------------------|
|
|---------------------------------|---------------------------------|
|---------------------------------|---------------------------------|
|---------------------------------|---------------------------------|
|-0-0-7p0-3p0-0-5p0-3p0-0-2p0-3p0-|-0-0-7p0-3p0-0-5p0-3p0-0-2p0-3p0-|
|---------------------------------|---------------------------------|
|---------------------------------|---------------------------------|


|---------------------------------|--------------------------5b7r=====||
|---------------------------------|-----------------------------------||
|---------------------------------|-----------------------------------||
|-0-------------------------------|-0---------------------------------||
|-0-------------------------------|-0---------------------------------||
|-0-------------------------------|-0---------------------------------||
|
|---------------------------------|-------------------------10b12r====||
|---------------------------------|-----------------------------------||
|---------------------------------|-----------------------------------||
|-0-0-7p0-3p0-0-5p0-3p0-0-2p0-3p0-|-0-0-7p0-3p0-0-5p0-3p0-0-----------||
|---------------------------------|-----------------------------------||
|---------------------------------|-----------------------------------||


  PM-----------------------------------------------------------------
|---------------------------------|---------------------------------|
|---------------------------------|---------------------------------|
|---------------------------------|---------------------------------|
|---------------------------------|---------------------------------|
|-3-3-3-3-3-3-3-3-3-3-3-3-3-3-3-3-|-5-5-5-5-5-5-5-5-8-8-8-8-8-8-8-8-|
|-3-3-3-3-3-3-3-3-3-3-3-3-3-3-3-3-|-5-5-5-5-5-5-5-5-8-8-8-8-8-8-8-8-|
|
| PM-----------------------------------------------------------------
|---------------------------------|---------------------------------|
|---------------------------------|---------------------------------|
|---------------------------------|---------------------------------|
|---------------------------------|---------------------------------|
|-3-3-3-3-3-3-3-3-3-3-3-3-3-3-3-3-|-5-5-5-5-5-5-5-5-8-8-8-8-8-8-8-8-|
|-3-3-3-3-3-3-3-3-3-3-3-3-3-3-3-3-|-5-5-5-5-5-5-5-5-8-8-8-8-8-8-8-8-|


 -----------------------------------------------------------------|
|---------------------------------|------------------------------------|
|---------------------------------|------------------------------------|
|---------------------------------|------------------------------------|
|---------------------------------|------------------------------------|
|-0-0-0-0-0-0-0-0-0-0-0-0-0-0-0-0-|-0-0-0-0-0-0-0-0-0-0-0-0-0-0-0-0----|
|-0-0-0-0-0-0-0-0-0-0-0-0-0-0-0-0-|-0-0-0-0-0-0-0-0-0-0-0-0-0-0-0-0----|
|
|---|     PM--------------------------|     PM--------------------|
|---------------------------------|------------------------------------|
|---------------------------------|------------------------------------|
|---------------------------------|------------------------------------|
|-----5p0-------------------------|-----5p0----------------------------|
|-0-0-----0-0-0-0-0-0-0-0-0-0-0-0-|-0-0-----0-0-0-0-0-0-0-0-0-0-0-0----|
|-0-0-----0-0-0-0-0-0-0-0-0-0-0-0-|-0-0-----0-0-0-0-0-0-0-0-0-0-0-0----|


  PM----------------------------------------------|
|---------------------------------|---------------------------------|
|---------------------------------|---------------------------------|
|---------------------------------|---------------------------------|
|---------------------------------|-----------------8-8-8-8-8-8-8-8-|
|-3-3-3-3-3-3-3-3-3-3-3-3-3-3-3-3-|-5-5-5-5-5-5-5-5-8-8-8-8-8-8-8-8-|
|-3-3-3-3-3-3-3-3-3-3-3-3-3-3-3-3-|-5-5-5-5-5-5-5-5-8-8-8-8-8-8-8-8-|
|
| PM----------------------------------|     PM----|
|---------------------------------|---------------------------------|
|---------------------------------|---------------------------------|
|---------------------------------|---------------------------------|
|---------------------------------|-----5p0---------8p0-7p0-5p0-7p0-|
|-3-3-3-3-3-3-3-3-3-3-3-3-3-3-3-3-|-5-5-----5-5-5-5-----------------|
|-3-3-3-3-3-3-3-3-3-3-3-3-3-3-3-3-|-5-5-----5-5-5-5-----------------|


  Gtr III
                      PM----------------|
|-----------------------------------------|-----------------------------||
|-----------------------------------------|-----------------------------||
|-----------------------------------------|-----------------------------||
|-0-0-------------0-0---------------------|-0-0-----------------0-0-----||
|-0-0-------------0-0-0-0---0-0-0-0-0-0-0-|-0-0-----------------0-0-----||
|-0-0-------------0-0-0-0---0-0-0-0-0-0-0-|-0-0-----------------0-0-----||
|
| Gtr IV
|     PM------------|                           PM------------|
|-----------------------------------------|-----------------------------||
|-----------------------------------------|-----------------------------||
|-----------------------------------------|-----------------------------||
|-0-0-----------------0---0---------------|-0-0-----------------0-0-----||
|-0-0-0-0-0-0-0-0-0-0-0---0---------------|-0-0-0-0-0-0-0-0-0-0-0-0-----||
|-0-0-0-0-0-0-0-0-0-0-0---0---------------|-0-0-0-0-0-0-0-0-0-0-0-0-----||


    Gtr I
||-------------------------------------|-------------------------------------|
||o------------------------------------|-------------------------------------|
||-------------------------------------|-------------------------------------|
||--0-0----------0-0----0-0------------|-0-0----------0-0----0-0---10--------|
||o-0-0----------0-0----0-0------------|-0-0----------0-0----0-0---10--------|
||--0-0----------0-0----0-0------------|-0-0----------0-0----0-0---10--------|
|
|   Gtr II
||-------------------------------------|-------------------------------------|
||o-----8h10p8-------8h10p8------------|-----8h10p8-------8h10p8-------------|
||--7h9--------9-7h9--------9-9p7-10p7-|-7h9--------9-7h9--------9--9p7-10p7-|
||-------------------------------------|-------------------------------------|
||o------------------------------------|-------------------------------------|
||-------------------------------------|-------------------------------------|


                                                                            3x
|------------------------------------|--------------------------------------||
|------------------------------------|-------------------------------------o||
|------------------------------------|--------------------------------------||
|-8-8-8--8-8-8-8-8-8--8-8-8-8-8--8-8-|-5-5-5--5-5-5-5-5-5--5-5-5-5-5--5-5---||
|-8-8-8--8-8-8-8-8-8--8-8-8-8-8--8-8-|-5-5-5--5-5-5-5-5-5--5-5-5-5-5--5-5--o||
|-8-8-8--8-8-8-8-8-8--8-8-8-8-8--8-8-|-5-5-5--5-5-5-5-5-5--5-5-5-5-5--5-5---||
|
|                                                                           3x
|------------------------------------|--------------------------------------||
|-----8h10p8-------8h10p8------------|-----8h10p8-------8h10p8-------------o||
|-7h9--------9-7h9--------9-9p7-10p7-|-7h9--------9-7h9--------9-9p7-10p7---||
|------------------------------------|--------------------------------------||
|------------------------------------|-------------------------------------o||
|------------------------------------|--------------------------------------||


  Gtr V
|-----------|------------|-----------|--------|
|-----------|------------|-----------|--------|
|-----------|------------|-----------|--------|
|-8---------|-(8)--------|-5---------|-(5)----|
|-8---------|-(8)--------|-5---------|-(5)----|
|-8---------|-(8)--------|-5---------|-(5)----|
|
| Gtr VI
|-----------|------------|-----------|--------|
|--------6--|-(6)--------|--------6--|-(6)----|
|--------9--|-(9)--------|--------9--|-(9)----|
|--------0--|-(0)--------|--------0--|-(0)----|
|-----------|------------|-----------|--------|
|-----------|------------|-----------|--------|


|-----------|------------|----------|--------||
|-----------|------------|----------|--------||
|-----------|------------|----------|--------||
|-8---------|-(8)--------|-5--------|-(5)----||
|-8---------|-(8)--------|-5--------|-(5)----||
|-8---------|-(8)--------|-5--------|-(5)----||
|
|-----------|------------|----------|--------||
|--------6--|-(6)--------|----------|--------||
|--------9--|-(9)--------|----------|--------||
|--------0--|-(0)--------|----------|--------||
|-----------|------------|----------|--------||
|-----------|------------|----------|--------||


||------------------------|----------------------|
||o-----------------------|----------------------|
||------------------------|----------------------|
||--0---------------------|-(0)------------------|
||o-0---------------------|-(0)------------------|
||--0---------------------|-(0)------------------|
|
||------------------------|--------------13--13--|
||o-----------------------|-----10h13p10---------|
||--9h10p9----------10h12-|-10-------------------|
||---------10h12p10-------|----------------------|
||o-----------------------|----------------------|
||------------------------|----------------------|


|---------------------|---------|
|---------------------|---------|
|---------------------|---------|
|-3-------------------|--(3)----|
|-3-------------------|--(3)----|
|-3-------------------|--(3)----|
|
|---------------------|---------|
|---------------------|---------|
|-9h10p9----------10--|-(10)----|
|--------10h12p10-----|---------|
|---------------------|---------|
|---------------------|---------|


|-----------------------|----------------------|
|-----------------------|----------------------|
|-----------------------|----------------------|
|-0---------------------|-(0)------------------|
|-0---------------------|-(0)------------------|
|-0---------------------|-(0)------------------|
|
|-----------------------|--------------13--13--|
|-----------------------|-----10h13p10---------|
|-9h10p9----------10h12-|-10-------------------|
|--------10h12p10-------|----------------------|
|-----------------------|----------------------|
|-----------------------|----------------------|


|---------------------|----------||
|---------------------|---------o||
|---------------------|----------||
|-3-------------------|--(3)-----||
|-3-------------------|--(3)----o||
|-3-------------------|--(3)-----||
|
|---------------------|----------||
|---------------------|---------o||
|-9h10p9--------------|----------||
|--------10h12p10-----|----------||
|-----------------10--|-(10)----o||
|---------------------|----------||


                                                      6/4
||-------------------|------------|------------------|---------||
||o------------------|------------|------------------|--------o||
||-------------------|------------|------------------|---------||
||---3---------------|-(3)--------|--5---------------|-(5)-----||
||o--3---------------|-(3)--------|--5---------------|-(5)----o||
||---3---------------|-(3)--------|--5---------------|-(5)-----||
|
||-------------------|------------|------------------|---------||
||o----10------------|------------|----10------------|--------o||
||--10----10--9--10--|------------|-10----10--9--10--|---------||
||-------------------|------------|------------------|---------||
||o------------------|------------|------------------|--------o||
||-------------------|------------|------------------|---------||


 4/4
|-|
|-|
|-|
|-|
|-|
|-|




--------------------------------------------------------------------------------


Tablature Legend
----------------
 h   - hammer-on
 p   - pull-off
 b   - bend
 pb  - pre-bend
 r   - bend release (if no number after the r, then release immediately)
 /\  - slide into or out of (from/to "nowhere")
 s   - legato slide
 S   - shift slide
 - natural harmonic
[n]  - artificial harmonic
n(n) - tapped harmonic
 ~   - vibrato
 tr  - trill
 T   - tap
 TP  - trem. picking
 PM  - palm muting
\n/  - tremolo bar dip; n = amount to dip
 \n  - tremolo bar down
 n/  - tremolo bar up
/n\  - tremolo bar inverted dip
 =   - hold bend; also acts as connecting device for hammers/pulls
 <> - volume swell (louder/softer)
 x   - on rhythm slash represents muted slash
 o   - on rhythm slash represents single note slash

Misc Legend
-----------
 |  - bar
||  - double bar
||o - repeat start
o|| - repeat end
*|  - double bar (ending)
 :  - bar (freetime)
 $  - Segno
 &  - Coda
Tempo markers -  = BPM(8/16=s8/s16), where s8 = swing 8ths, s16 = swing 16ths





Comments


Popular Blessthefall tabs & chords
Hey Baby Heres That Song You Wanted Bass Tabs
Higinia 2 Bass Tabs
Take Me Now Bass Tabs
Times Like These Drum Tabs
A Message To The Unknown Tabs
Guys Like You Make Us Look Bad 2 Tabs
Times Like These 1 Tabs
To Hell And Back Intro Tabs
Waiting For Tomorrow 2 Tabs
Whats Left Of Me 1 Tabs


Song lyrics



↑ Back to top | Tablatures and chords are parodies/interpretations of the original songs. You may use it for private study, scholarship, research or language learning purposes only
© 2014 AZChords.com Contact us | Privacy policy | DMCA | Add/correct tabs | Request tabs | Top 50 tabs