» » »

Guys Like You Make Us Look Bad Bass tabs (ver.1)

Artists:  A B C D E F G H I J K L M N O P Q R S T U V W X Y Z # 

Guys Like You Make Us Look Bad Bass tabs (ver.1)

Blessthefall
Rating:
5/5 (13 votes)

Hard to play? Try these video lessons and learn fast.
                               _____________________________________________
              |_____________________________________________|



Tuning: Drop D

Key:
~~~~~ = Let the note ring

Intro
G|-------------------------------------------------|
D|-------------------------------------------------|
A|-------------------------------------------------|
D|0~-00-0-0-0-00-00-0-0-0-00-00-0-0-0-00-00-00-000-|

G|--------------------------------------------|
D|--------------------------------------------|
A|--------------------------------------------|
D|0-00-0-0-0-00-00-0-0-0-00-00-0-0-0-00-00-00-|

(You scream don't look, you scream don't touch / What have they done?)
G|---------------------------------------------------------|
D|---------------------------------------------------------|
A|-------------------------1-1-1-1-1-1-1-1-----------------|
D|00--00-00--00--00-00-333-----------------5-5-5-5-5-5-5-5-|

(And every time I think about your voice I start to tremble)
G|---------------------------------------------------------|
D|---------------------------------------------------------|
A|-------------------------1-1-1-1-1-1-1-1-----------------|
D|00--00-00--00--00-00-333-----------------5-5-5-5-5-5-5-5-|

(And anytime you need a shoulder, I'm right here)
G|---------------------------------------------------------|
D|---------------------------------------------------------|
A|-------------------------1-1-1-1-1-1-1-1-----------------|
D|00--00-00--00--00-00-333-----------------5-5-5-5-5-5-5-5-|

(A way...)
G|--------------------|
D|--------------------|
A|--------------------|
D|0~~~-0~~~-0~~~-0~~~-|

(She sits alone, tries to adjust / She cries please let me go)
G|----------------------------------------------------------------|
D|----------------------------------------------------------------|
A|----------------------------------------------------------------|
D|3-3-3-3-3-3-3-3-5-5-5-5-8-8-8-8-0-0-0-0-0-0-0-0-0-0-0-0-0-0-0-0-|

(You scream don't look, please God don't touch)
G|---------------------------------|
D|---------------------------------|
A|---------------------------------|
D|3-3-3-3-3-3-3-3-5-5-5-5-8-8-8-8-0|

Break (Alternating guitars)

(You scream don't look, you scream don't touch / What have they done?)
G|---------------------------------------------------------|
D|---------------------------------------------------------|
A|-------------------------1-1-1-1-1-1-1-1-----------------|
D|00--00-00--00--00-00-333-----------------5-5-5-5-5-5-5-5-|

(And every time I think about your voice I start to tremble)
G|---------------------------------------------------------|
D|---------------------------------------------------------|
A|-------------------------1-1-1-1-1-1-1-1-----------------|
D|00--00-00--00--00-00-333-----------------5-5-5-5-5-5-5-5-|

(And anytime you need a shoulder, I'm right here)
G|---------------------------------------------------------|
D|---------------------------------------------------------|
A|-------------------------1-1-1-1-1-1-1-1-----------------|
D|00--00-00--00--00-00-333-----------------5-5-5-5-5-5-5-5-|

(A way...)
G|----------------------------|
D|----------------------------|
A|----------------------------|
D|8~~~~~-5~~~~~-8~~~~~-5~~~~~-|

Break (Strings, guitars, drums)

(Oh God please help us, get her out of this)
G|---------------------------------------------------|
D|---------------------------------------------------|
A|---------------------------------------------------|
D|00-00--0-00--00-00--0-00--00-00--0-00--00-00--0-00-|

(Oh God...)
G|----------------------------------------|
D|----------------------------------------|
A|----------------------------------------|
D|000-000-0~-0~-0~-0~-000-000-0~-0~-0~-0~-|

G|----------------------------------------|
D|----------------------------------------|
A|----------------------------------------|
D|000-000-0~-0~-0~-0~-000-000-0~-0~-0~-0~-|

G|----------------------------------------|
D|----------------------------------------|
A|----------------------------------------|
D|000-000-0~-0~-0~-0~-000-000-0~-0~-0~-0~-|

G|----------------------------------------|
D|----------------------------------------|
A|----------------------------------------|
D|000-000-0~-0~-0~-0~-000-000-0~-0~-0~-0~-|

Outro
G|--------------------------------|
D|--------------------------------|
A|--------------------------------|
D|000-000-0~~-0~~-000-000-0~~-0~~-|

Check out the cool new video for this song!
            
Hard to play? Try these video lessons and learn fast. | Correct




comments powered by Disqus
↑ Back to top | Tablatures and chords are parodies/interpretations of the original songs. You may use it for private study, scholarship, research or language learning purposes only