>
 >
Guys Like You Make Us Look Bad 2

Guys Like You Make Us Look Bad 2 Guitar Tabs

Blessthefall - Guys Like You Make Us Look Bad 2 chords, tabs, tablatures, lyrics

Guitar lessons | Add/correct | Request | Top 50 tabs Artists:  A B C D E F G H I J K L M N O P Q R S T U V W X Y Z 0-9

Guys Like You Make Us Look Bad 2 Guitar Tabs – Blessthefall

CD, Sheet music, Poster

Do you like Guys Like You Make Us Look Bad 2? Share with your friends now
Bass TabsTabsTabs v2Tabs v3Tabs v4Tabs v5Tabs v6
-------------------------------------------------------------------------------
                             Guys Like You Make Us Look Bad - Blessthefall
-------------------------------------------------------------------------------

Tuning: Drop D (D,A,D,G,B,e)

 I am 99% sure this is correct. I figured this out before the other tab was released, 
is off a bit. Rate it please!

P.S:I am only going to tab out one guitar. There will be parts in this tab that are 

Intro x2

e|-------------------------------------------------------------------------------------------------|
B|-------------------------------------------------------------------------------------------------|
G|-------10h0-10h0-------------10h0-10h0-------------------10h0-10h0--------10h0-10h---------------|
D|--000--------------------00-------------------0-0-0--000---------------00------------------------|
A|--000--------------------00-------------------0-0-0--000---------------00------------------------|
E|--000--------------------00-------------------0-0-0--000---------------00------------------------|
    ***                    **                 * * *  ***                 **

e|----------------------------------------------------------------------------------------------|
B|----------------------------------------------------------------------------------------------|
G|------------------10h0-10h0---------10h0-10h0----------------10h0-10h0------------------------|
D|--0-0-0--000------------------00------------------0-0-0-000--------------0-0---0-0-0--0-0-0---|
A|--0-0-0--000------------------00------------------0-0-0-000--------------0-0---0-0-0--0-0-0---|
E|--0-0-0--000------------------00------------------0-0-0-000--------------0-0---0-0-0--0-0-0---|
    * * *  ***                  **                  * * * ***

  End intro on:
e|-----------------------------------------------------------------------------------------------|
B|-----------------------------------------------------------------------------------------------|
G|-----------------------------------------------------------------------------------------------|
D|--000--0-0---0-0-------------------------------------------------------------------------------|
A|--000--0-0---0-0-------------------------------------------------------------------------------|
E|--000--0-0---0-0-------------------------------------------------------------------------------|
    ***  * *   * *

Verse
e|-----------------------------------------------------------------------------------------------|
B|-------------10p8----------10p8----------------------------------------------------------------|
G|-----9h10----------9h10-----------10-10h7------------------------------------------------------|x12
D|-----------------------------------------------------------------------------------------------|
A|-----------------------------------------------------------------------------------------------|
E|-----------------------------------------------------------------------------------------------|

e|-----------------------------------------------------------------------------------------------|
B|-----------------------------------------------------------------------------------------------|
G|-----------------------------------------------------------------------------------------------|
D|----0~----7p0-3p0-0-5p0-3p0-0-2p0-3p0----------------------------------------------------------|x4
A|----0~-----------------------------------------------------------------------------------------|
E|----0~-----------------------------------------------------------------------------------------|


   Figure out strumming pattern on this yourself
e|----------------------------------------------------------------------------------------------|
B|----------------------------------------------------------------------------------------------|
G|----------------------------------------------------------------------------------------------|
D|----3----5----8----0--3--5--8-----------------------------------------------------------------|
A|----3----5----8----0--3--5--8-----------------------------------------------------------------|
E|----3----5----8----0--3--5--8-----------------------------------------------------------------|
      *    *    *       *  *  *
e|----------------------------------------------------------------------------------------------|
B|----------------------------------------------------------------------------------------------|
G|----------------------------------------------------------------------------------------------|
D|----0-0----0-0-0---0----0-0-0--000-000----0-0--0-0-0-0----------------------------------------|
A|----0-0----0-0-0---0----0-0-0--000-000----0-0--0-0-0-0----------------------------------------|
E|----0-0----0-0-0---0----0-0-0--000-000----0-0--0-0-0-0----------------------------------------|
             * * *        * * *  *** ***         * * *
Repeat verse x13

e|--------------------------------------------------------------------------------------------------|
B|-------------10~-----------10~---------10~--------------------------------------------------------|
G|-------------10~-----------10~---------10~--------------------------------------------------------|
D|----8~-------------5~-----------8~-------------5~-------------------------------------------------|
A|----8~-------------5~-----------8~-------------5~-------------------------------------------------|
E|----8~-------------5~-----------8~-------------5~-------------------------------------------------|

e|-------------------------------------------------13p12-13p12---------------------------------------|
B|------------------------------------------13-------------------------------------------------------|
G|-----9h10p9----------------9h10p9----------------------------9h10p9--------------------------------|
D|----------------10h12p10---------------------------------------------------10-----12~--------------|x4
A|-----------------------------------------------------------------------------------12--------------|
E|---------------------------------------------------------------------------------------------------|

e|----------------------------------------------------------------------------------------------|
B|--------10------10~---------------------------------------------------------------------------|
G|----10----10-9--10~---------------------------------------------------------------------------|
D|----------------------------------------------------------------------------------------------|
A|----------------------------------------------------------------------------------------------|
E|----------------------------------------------------------------------------------------------|

e|----------------------------------------------------------------------------------------------|
B|----------------------------------------------------------------------------------------------|
G|----------------------------------------------------------------------------------------------|
D|---0-0----3p0-10p0-0-7p0-0-3p0-10p0-0-7p0-----------------------------------------------------|
A|---0-0----------------------------------------------------------------------------------------|
E|---0-0----------------------------------------------------------------------------------------|

End on
e|-----------------------------------------------------|
B|-----------------------------------------------------|
G|-----------------------------------------------------|
D|---000-000-0-0-0-0-----------------------------------|
A|---000-000-0-0-0-0-----------------------------------|
E|---000-000-0-0-0-0-----------------------------------|
       *** ***  * * *  *


| /  slide up
| \  slide down
| h  hammer-on
| p  pull-off
| ~  vibrato
| +  harmonic
|*  Mute note
===============================================================================





Comments


Popular Blessthefall tabs & chords
40 Days Bass Tabs
Hey Baby Heres That Song You Wanted Bass Tabs
Higinia 2 Bass Tabs
Stay Still 2 Bass Tabs
Hey Baby Heres That Song You Wanted 1 Tabs
Im Bad News In The Best Way Tabs
Rise Up Acoustic Intro Tabs
Take Me Now Part 2 Tabs
Wait For Tomorrow 1 Tabs
Witness Intro Tabs


Song lyrics



↑ Back to top | Tablatures and chords are parodies/interpretations of the original songs. You may use it for private study, scholarship, research or language learning purposes only
© 2014 AZChords.com Contact us | Privacy policy | DMCA | Add/correct tabs | Request tabs | Top 50 tabs