» » »

Blessthefall, Could Tell A Love Tabs (ver.1)

Artists:  A B C D E F G H I J K L M N O P Q R S T U V W X Y Z # 

Could Tell A Love Tabs (ver.1)

Blessthefall Tabs
Rating:
4/5 (1 vote)
Could Tell A Love lessons Tabs too difficult? Try these video lessons and learn fast
                (Intro)
-----------------------------------------------------------------------------
-----------------------------------------------------------------------------
-----------------------------------------------------------------------------
-------7p0-8p0---5p0-7p0---7p0-3p0-----7p0-8p0---5p0-7p0---7p0-3p0---7p0-7p0-
-----00--------0---------0-----------00--------0---------0---------0---------
-----00--------0---------0-----------00--------0---------0---------0---------

-----------------------------------------------------------------------------
-----------------------------------------------------------------------------
-----------------------------------------------------------------------------
-------7p0-8p0---5p0-7p0---7p0-3p0-----7p0-8p0----10-------------------------
-----00--------0---------0-----------00--------0---8-------------------------
-----00--------0---------0-----------00--------0-----------------------------

P = Pull Off

The Tuning is Drop D

And thats all I have for now, I'll try and get the rest of the song down sometime soon.


-Tavis
            

comments powered by Disqus
↑ Back to top | Blessthefall Tabs for Could Tell A Love. Lyrics for acoustic guitar and electric guitar. Tablatures and chords are parodies/interpretations of the original songs. You may use it for private study, scholarship, research or language learning purposes only