>
 >
Could Tell A Love

Could Tell A Love Bass Tabs

Blessthefall - Could Tell A Love chords, tabs, tablatures, lyrics

Guitar lessons | Add/correct | Request | Top 50 tabs Artists:  A B C D E F G H I J K L M N O P Q R S T U V W X Y Z 0-9

Could Tell A Love Bass Tabs – Blessthefall

CD, Sheet music, Poster

Do you like Could Tell A Love? Share with your friends now
Bass TabsTabsTabs v2Tabs v3
                   ________________________________
                  |________________________________|



Tuning: Drop D

Key:
~~~~~ = Let the note ring

Intro (Begins with guitar)

(Well here go, my big plans / To build up this fortress into the clouds)
G|----------------------------------------------------------------|
D|----------------------------------------------------------------|
A|----------------1-1-1-1-1-1-1-1-----------------1-1-1-1-1-1-1-1-|
D|0-0-0-0-0-0-0-0-----------------0-0-0-0-0-0-0-0-----------------|

(It's made up of my love, and my heart, and my blood / We'll make it out)
G|----------------------------------------------------------------|
D|----------------------------------------------------------------|
A|----------------1-1-1-1-1-1-1-1---------------------------------|
D|0-0-0-0-0-0-0-0-----------------0-0-0-0-0-0-0-0-8-8-8-8-7-7-3-3-|

(Can I stand, with the weight of the world?)
G|-----------------------------------------|
D|-----------------------------------------|
A|-----------------------------------------|
D|00--0-0-0-0-0-000~~--00--0-0-0-0-0-000~~-|

(Can I stand, with the weight of the world?)
G|----------------------------------------------|
D|----------------------------------------------|
A|----------------------------------------------|
D|00--0-0-0-0-0-000-0-0-0-0-00--0-0-0-0-0-000~~-|

(And this is all I've got, I'll make it now or not)
G|----------------------------------------------|
D|----------------------------------------------|
A|----------------------------------------------|
D|3-3-3-3-3-3-3-3-5-5-5-5-5-5-5-5-0-0-00-0-0-00-|

(I've fought so hard to fade, our lives are meant to take)
G|-----------------------------------------------------------|
D|-----------------------------------------------------------|
A|-----------------------------------------------------------|
D|3-3-3-3-3-3-3-3-5-5-5-5-5-5-5-5-0-0-00-0-0-00-0-0-00-0-0-00|

(That's how it goes, it goes)
G|----------------|
D|----------------|
A|----------------|
D|3-3-3-3-5-5-5-5-|

(Well here go, my big plans / To build up this fortress into the clouds)
G|----------------------------------------------------------------|
D|----------------------------------------------------------------|
A|----------------1-1-1-1-1-1-1-1-----------------1-1-1-1-1-1-1-1-|
D|0-0-0-0-0-0-0-0-----------------0-0-0-0-0-0-0-0-----------------|

(It's made up of my love, and my heart, and my blood / We'll make it out)
G|-----------------------------------------------------------------------|
D|-----------------------------------------------------------------------|
A|----------------1-1-1-1-1-1-1-1---8-8-8-8-8-8-8---10-10-10-10-10-10-10-|
D|0-0-0-0-0-0-0-0-----------------0---------------0----------------------|

Break (Guitar only)

(Pounds, I'm breathing now, I won't fall down)
G|------------------------------------------------------------|
D|------------------------------------------------------------|
A|------------------------------------------------------------|
D|0-0-0-0~-0-0-0-00-00-0-0-0-0~-0-0-0-0~-0-0-0-00-00-0-0-0-0~-|

(Pounds, I'm breathing now, I won't fall down)
G|------------------------------------------------------------|
D|------------------------------------------------------------|
A|------------------------------------------------------------|
D|0-0-0-0~-0-0-0-00-00-0-0-0-0~-0-0-0-0~-0-0-0-00-00-0-0-0-0~-|

(Pounds, I'm breathing now, I won't fall down)
G|------------------------------------------------------------|
D|------------------------------------------------------------|
A|------------------------------------------------------------|
D|0-0-0-0~-0-0-0-00-00-0-0-0-0~-0-0-0-0~-0-0-0-00-00-0-0-0-0~-|

(Pounds, I'm breathing now, I won't fall down)
G|------------------------------|
D|------------------------------|
A|------------------------------|
D|0-0-0-0~-0-0-0-00-00-0-0-0-0~~|

Break (Vocals and Guitar)

(My big plans / To build up this fortress into the clouds)
G|----------------------------------------------------------------|
D|----------------------------------------------------------------|
A|----------------1-1-1-1-1-1-1-1-----------------1-1-1-1-1-1-1-1-|
D|0-0-0-0-0-0-0-0-----------------0-0-0-0-0-0-0-0-----------------|

(It's made up of my love, and my heart, and my blood / We'll make it out)
G|----------------------------------------------------------------|
D|----------------------------------------------------------------|
A|----------------1-1-1-1-1-1-1-1-----------------1-1-1-1-1-1-1-1-|
D|0-0-0-0-0-0-0-0-----------------0-0-0-0-0-0-0-0-----------------|

(We'll make it out)
G|-----------------------------------------------------------------------|
D|-----------------------------------------------------------------------|
A|----------------1-1-1-1-1-1-1-1---8-8-8-8-8-8-8---10-10-10-10-10-10-10-|
D|0-0-0-0-0-0-0-0-----------------0---------------0----------------------|

(We'll make it, out of here / You're not the only one)
G|----------------------------------------|
D|----------------------------------------|
A|--8-8-8-8-8-8-8---10-10-10-10-10-10-10--|
D|0---------------0----------------------0|

Pretty easy to play, but it's an awesome song!





Comments


Popular Blessthefall tabs & chords
Wait For Tomorrow Bass Tabs
40 Days 1 Tabs
Dont Say Goodbye Tabs
Hey Baby, Here's That Song You Wanted Tabs
Promised Ones Intro Tabs
Rise Up 3 Tabs
Stay Still Intro Tabs
Times Like These 1 Tabs
Times Like These 3 Tabs
Wait For Tomorrow Ukulele


Song lyrics



↑ Back to top | Tablatures and chords are parodies/interpretations of the original songs. You may use it for private study, scholarship, research or language learning purposes only
© 2014 AZChords.com Contact us | Privacy policy | DMCA | Add/correct tabs | Request tabs | Top 50 tabs