>
 >
Could Tell A Love

Could Tell A Love Guitar Tabs

Blessthefall - Could Tell A Love chords, tabs, tablatures, lyrics

Guitar lessons | Add/correct | Request | Top 50 tabs Artists:  A B C D E F G H I J K L M N O P Q R S T U V W X Y Z 0-9

Could Tell A Love Guitar Tabs – Blessthefall

CD, Sheet music, Poster

Do you like Could Tell A Love? Share with your friends now
Bass TabsTabsTabs v2Tabs v3
Artiste: BlessTheFall


Intro:

*Guitar 1

----------------------------------------------------------------|
----------------------------------------------------------------|
----------------------------------------------------------------|
---7p0-8p0---5p0-7p0---7p0-3p0------7p0-8p0--5p0-7p0---7p0-7p0--|
----------------------------------------------------------------|
00---------0--------0-----------00---------0---------0----------|
..         .        .           ..         .         .

----------------------------------------------------------------|
----------------------------------------------------------------|
----------------------------------------------------------------|
---7p0-8p0---5p0-7p0---7p0-3p0------7p0-8p0--5p0-5p0---7p0-7p0--|x4
----------------------------------------------------------------|
00---------0--------0-----------00---------0---------0----------|
..         .        .           ..         .         .

*Guitar 2

--------------------|          --------------------| 
--------------------|          --------------------| 
--------------------|x3  Then  --------------------| 
--------------------|          --------------------| 
-00000000-88888888--|          -00000000-33333333--| 
-00000000-88888888--|          -00000000-33333333--| 

Verse I: Guitars 1 & 2

----0-------------------------------------------0-----------------------|
----6-------------------------------------------6-----------------------|
------------------------------------------------------------------------|
-00-------000-0000----00--------------------00-------000-0000-00-00--x2-|
-00-------000-0000----00-7h8-5h7--------x2--00-------000-0000-00-00-----|
-00-------000-0000----00---------7h5h0------00-------000-0000-00-00-----|
 ..       ... ....    ..

Then:

---------------------|   -----------------------------------------------------|
---------------------|   ------10-5h6h5----10-5h6h5------10-5h6h5-------------|
---------------------|   -----------------------------------------------------|
8h7h5-0h5-7-5h7-7h8-7|x4 ---00----------00----------00-0----------00----------|
---------------------|   ---00----------00----------00-0----------00----------|
---------------------|   ---00----------00----------00-0----------00----------|

-------|
-------|
-------|
-00----|x2 
-00----|
-00----|

pre-chorus
------------------|
------------------|
------------------|
-33333333-55555555|
-33333333-55555555|
-33333333-55555555|

chorus is the intro played 3 times and then:

-------------------------------------------------------------------|
-------------------------------------------------------------------|
-10101010101010101010101010101010-12121212121212121212121212121212-|
-x-x-x-x-x-x-x-x-x-x-x-x-x-x-x-x--x-x-x-x-x-x-x-x-x-x-x-x-x-x-x-x--|
-8-8-8-8-8-8-8-8-8-8-8-8-8-8-8-8--10101010101010101010101010101010-|
-------------------------------------------------------------------|

Verse II: Guitar 1 & 2

-----------------------------------------------------------------------------------|
-----------------------------------------------------------------------------------|
-------------------x4-----------------------------10h0-12h0---------------10h0-10h0|
-0000-000-0-0-0000---------0000---7h0-5h0-8h0-5h0----------7h0-5h0-8h0-5h0---------|
-0000-000-0-0-0000-----5*--0000----------------------------------------------------|
-0000-000-0-0-0000---------0000----------------------------------------------------|

then the guitar 1 comes in with this

----------------------------------|
----------------------------------|
----------------------------------|
-10101010101010101010101010101010-|
-x-x-x-x-x-x-x-x-x-x-x-x-x-x-x-x--|
-8-8-8-8-8-8-8-8-8-8-8-8-8-8-8-8--|


then the chorus played 8 times and then Outro:

Guitar 1

----------------------------------------------------------------------|
----------------------------------------------------------------------|
-10101010101010101010101010101010-12121212121212121212121212121212-12-|
-x-x-x-x-x-x-x-x-x-x-x-x-x-x-x-x--x-x-x-x-x-x-x-x-x-x-x-x-x-x-x-x---x-|
-8-8-8-8-8-8-8-8-8-8-8-8-8-8-8-8--10101010101010101010101010101010-10-|
----------------------------------------------------------------------|

Guitar 2

----------------------------------------------------------------------|
----------------------------------------------------------------------|
----------------------------------------------------------------------|
----------------------------------------------------------------------|
-0000000000000000000000000000000--88888888888888888888888888888888888-|
-0000000000000000000000000000000--88888888888888888888888888888888888-|





Comments


Popular Blessthefall tabs & chords
Guys Like You Make Us Look Bad Bass Tabs
Wait For Tomorrow Bass Tabs
Rise Up 3 Chords
Could Tell A Love Intro Tabs
Guys Like You Make Us Look Bad 4 Tabs
Rise Up 1 Tabs
Take Me Now Part 2 Tabs
Waiting For Tomorrow 2 Tabs
Whats Left Of Me Tabs
Witness Tabs


Song lyrics



↑ Back to top | Tablatures and chords are parodies/interpretations of the original songs. You may use it for private study, scholarship, research or language learning purposes only
© 2014 AZChords.com Contact us | Privacy policy | DMCA | Add/correct tabs | Request tabs | Top 50 tabs