» » »

Could Tell A Love Tabs (ver.3)

Artists:  A B C D E F G H I J K L M N O P Q R S T U V W X Y Z # 

Could Tell A Love Tabs (ver.3)

Blessthefall
Rating:
5/5 (2 votes)

Hard to play? Try these video lessons and learn fast.
                -------------------------------------------------------------------------------
                             Could Tell A Love - Bless The Fall
-------------------------------------------------------------------------------

Tuning: Drop D

This is for one guitar mostly, it's pretty hard to distinguish two seperate
guitar parts in this, so they must both play similar, if not the same parts 
for most of the song.. 

e|----------------------------------------------------|
B|----------------------------------------------------|
G|----------------------------------------------------|
D|-------7-8---5-7---5h7p5--------7-8---5-7---7p0-7p0-|
A|-------------------------8--------------------------|
D|----00-----0-----0-----------00-----0-----0---------|
pm.   ..     .     .           ..     .     .
e|----------------------------------------------------|
B|----------------------------------------------------|
G|----------------------------------------------------|
D|-------7-8---5-7---5h7p5--------7-8---5~------------|
A|-------------------------8--------------------------|
D|----00-----0-----0-----------00-----0---------------|
pm.   ..     .     .           ..     .     

e|----------------------------------------------------|
B|----------------------------------------------------|
G|----------------------------------------------------| ->
D|-------7-8---5-7---5h7p5--------7-8---5-7---7p0-7p0-| ->
A|-------------------------8--------------------------|
D|----00-----0-----0-----------00-----0-----0---------|
pm.   ..     .     .           ..     .     .
e|----------------------------------------------------|
B|----------------------------------------------------|
G|----------------------------------------------------| x2
D|-------7-8---5-7---5h7p5--------7-8---5-7-----------|
A|-------------------------8------------------5-7-5-8-|
D|----00-----0-----0-----------00-----0-----0---------|
pm.   ..     .     .           ..     .     . . . . .

On fourth playthrough, leave out bracketed notes. [---|
e|5-5-5---------------[-----------|
B|6-6-6---------------[-----------|
G|7-7-7---------------[-----------| x4
D|7-7-7---------------[-----------|
A|-------00-0-0-0-0---[00-7h8-8-5-|
D|-------00-0-0-0-0---[00---------|
pm       .. . . . .    ..                 

e|----------------------------------------------------------------|
B|----------------------------------------------------------------|
G|----------------------------------------------------------------|
D|8p7-5p0-3p0-5p0-7p0-5p0-3p0-5p0-8p7-5p0-3p0-5p0-7p0-5p0-3p0-5p0-|
A|----------------------------------------------------------------|
D|----------------------------------------------------------------|

e|--5p0-------5p0---------5p0-------5p0-----|
B|------6p0-------6p0---------6p0-------6p0-|
G|------------------------------------------| x2
D|------------------------------------------|
A|0---------0---------0-0---------0---------|
D|0---------0---------0-0---------0---------|
pm.         .         . .         .

e|--------------------------|
B|--------------------------|
G|--------------------------|
D|3-3-3--3-3-3-5-5-5--5-5-5-|
A|3-3-3--3-3-3-5-5-5--5-5-5-|
D|3-3-3--3-3-3-5-5-5--5-5-5-|

e|----------------------------------------------------|
B|----------------------------------------------------|
G|----------------------------------------------------| ->
D|-------7-8---5-7---5h7p5--------7-8---5-7---7p0-7p0-| ->
A|-------------------------8--------------------------|
D|----00-----0-----0-----------00-----0-----0---------|
pm.   ..     .     .           ..     .     .
e|----------------------------------------------------|
B|----------------------------------------------------|
G|----------------------------------------------------| x2
D|-------7-8---5-7---5h7p5--------7-8---5-7-----------|
A|-------------------------8------------------5-7-5-8-|
D|----00-----0-----0-----------00-----0-----0---------|
pm.   ..     .     .           ..     .     . . . . .

Guitar 1 (x4 before guitar 2 enters)
e|-------------------------------|
B|-------------------------------|
G|-------------------------------| x8
D|-------------------------------|
A|0-0-0-0--0-0-0-000-000-0-0-0-0-|
D|0-0-0-0--0-0-0-000-000-0-0-0-0-|
pm. . . .  . . . ... ... . . . .
Guitar 2
e|----------------------------------------------|
B|----------------------------------------------|
G|--------------------8p6p0-------8p6p0-12p10p0-| ->
D|--------8p6p0-------------8p6p0---------------| ->
A|0-0-0-0-------8p6p0---------------------------|
D|0-0-0-0---------------------------------------|
pm. . . .
Guitar 2 cont'd
e|--------------------------------------------|
B|--------------------------------------------|
G|--------------------8p6p0-------8p6p0-5p3p0-| x4
D|--------8p6p0-------------8p6p0-------------|
A|0-0-0-0-------8p6p0-------------------------|
D|0-0-0-0-------------------------------------|
pm. . . .

e|-----------------|
B|-----------------|
G|3333333333333333-|
D|3333333333333333-|
A|1111111111111111-|
D|-----------------|

e|----------------------------------------------------|
B|----------------------------------------------------|
G|----------------------------------------------------| ->
D|-------7-8---5-7---5h7p5--------7-8---5-7---7p0-7p0-| ->
A|-------------------------8--------------------------|
D|----00-----0-----0-----------00-----0-----0---------|
pm.   ..     .     .           ..     .     .
e|----------------------------------------------------|
B|----------------------------------------------------|
G|----------------------------------------------------| x3
D|-------7-8---5-7---5h7p5--------7-8---5-7-----------|
A|-------------------------8------------------5-7-5-8-|
D|----00-----0-----0-----------00-----0-----0---------|
pm.   ..     .     .           ..     .     . . . . .

e|-----------------------------------------------------------------------|
B|-----------------------------------------------------------------------|
G|----1010101010101010101010101010-------1212121212121212121212121212----|
D|----1010101010101010101010101010-------1212121212121212121212121212----|
A|----8-8-8-8-8-8-8-8-8-8-8-8-8-8--------1010101010101010101010101010-0~-|
D|8-8------------------------------10-10------------------------------0~-|
pm. .                              .. .. 


| /  slide up
| \  slide down
| h  hammer-on
| p  pull-off
| ~  vibrato
| +  harmonic
| x  Mute note
===============================================================================
            
Hard to play? Try these video lessons and learn fast. | Correct




comments powered by Disqus
↑ Back to top | Tablatures and chords are parodies/interpretations of the original songs. You may use it for private study, scholarship, research or language learning purposes only