» » »

Push Push Lady Lightning Bass tabs (ver.2)

Artists:  A B C D E F G H I J K L M N O P Q R S T U V W X Y Z # 

Push Push Lady Lightning Bass tabs (ver.2)

Bang Camaro
Rating:
1/5 (2 votes)

Hard to play? Try these video lessons and learn fast.
                Intro x2
G----------------------------------------|
D-----------------------------2----------|
A-0-0-0-0-3---------3-5-5-5-5------------|
E-----------1-1-1-1-------------3-3-3-34-|

G------------------------------------------|
D-----------------------------2------------|
A-0-0-0-0-3---------3-5-5-5-5--------------|
E-----------1-1-1-1-------------3-3-333334-|

Verse 1
G--------------------------------------------|
D-3-3-3-3--5-5-5-5--3-3-3-3--5-5-5-5-6-6-6-6-|
A--------------------------------------------|
E--------------------------------------------|

Chorus 1 x2
G-------------------------------------------|
D-------------------------------------------|
A-0~---3-3-------------0~---3-3-------------|
E----------1-1-8753113----------1-1--333334-|

Intro x1

Verse 2
G----------------------------------------------|
D-3-3-3-3--5-5-5-5--3-3-3-3--5-555555-6-666666-|
A----------------------------------------------|
E----------------------------------------------|

Chorus 1 x2

Bass solo
G-------------------------------------------|
D----------5-------7---7--------------------|
A-0-0-0--3---3-3-5---5-----0-0-0---5--------|  x6
E--------------------------------3---3-5-5/-|

Chorus 2
G-------------------------------------------|
D-------------------------------------------|
A-0~---3-3--------------0~---3-3------------|  x2
E----------1-1-8753113-----------1-1--33334-|

G----------------------------------|
D----------------------------------|
A-0-0-0-0-0--3-3-3-----------------|  x4
E------------------1-1-1-1-2-2-3-3-|

Ending Part 1
G---------|
D---------|
A-0--0--0-|  x4
E---------|

G------------------------------------|
D------------------------------------|
A------------------------------------|
E-1-11111111111111111111111111111111-|

G------------------------------------|
D------------------------------------|
A------------------------------------|
E-3-33333333333333333333333333333333-|

Ending Part 2
G------------345------------------765---------------------------|
D---------345---765------------789---765------------------------|
A-0-012345---------765------789---------765----------0~---------|
E---------------------765789---------------7-5-3-1-3---------5/-|
            
Hard to play? Try these video lessons and learn fast. | Correct




comments powered by Disqus
↑ Back to top | Tablatures and chords are parodies/interpretations of the original songs. You may use it for private study, scholarship, research or language learning purposes only