» » »

Push Push Lady Lightning Bass

Artists:  A B C D E F G H I J K L M N O P Q R S T U V W X Y Z # 

Push Push Lady Lightning Bass

(ver. 3)
Bang Camaro Tabs
 Rating:
4.8/5 (19 votes)
    Push Push Lady Lightning lessons Tabs too difficult? Try these video lessons and learn fast
                PUSH PUSH (LADY LIGHTNING) by Bang Camaro
BASS TAB


MAIN RIFF (Rest for first four measures)
G]------------------------------------------|
D]------------------------------------------|
A]---------2---------2-4-4-4-4-6------------|
E]-4-4-4-4---0-0-0-0-------------2-2-222223-|

Repeat until PRECHORUS

PRECHORUS (Part where singing starts)
G]-----------------------------------------|
D]-2-2-2-2-4-4-4-4-2-2-2-2-4-4-4-4-6-6-6-6-|
A]-----------------------------------------|
E]-----------------------------------------|

CHORUS (Repeat)
G]-----------------------------------------------|
D]-----------------------------------------------|
A]-----2-2---------------------2-2---------------|
E]-4-------0-0---7642002---4--------0-0---222223-|

MAIN RIFF

PRECHORUS 2

CHORUS 2

BASS SOLO
G]-------------------------------------------|
D]-------------4-------6---6-----------------|
A]-----------2---2-2-4---4-------------4-----|
E]-4-4-4---------------------4-4-4---2---2-4-|

GUITAR REENTRANCE (Repeat BASS SOLO riff)

BRIDGE (Repeat BASS SOLO riff)

GUITAR SOLO (Rest)

CHORUS 3

CHORUS 4
G]------------------------|
D]------------------------|
A]-------2-2--------------|
E]-4-4--------0-0-2-2-3-3-|

OUTRO
G]------------------------------------------------|
D]------------------------------------------------|
A]------------------------------------------------|
E]-4-4-4hold---4-4-4hold----4-4-4hold---4-4-4hold-|

BIG ENDING 1						PAUSE
G]-------------------------------------|
D]-------------------------------------| 
A]-------------------------------------|
E]-0(hold or quickly strum)---2(again)-|

BIG ENDING 2
G]---------------------------|----|
D]---------------------------|----|
A]---------------------------|----|
E]-4-improvise, end on 4hold-|-4/-|
            
Submit corrections

↑ Back to top | Bang Camaro Bass for Push Push Lady Lightning. Lyrics for acoustic guitar and electric guitar. Tablatures and chords are parodies/interpretations of the original songs. You may use it for private study, scholarship, research or language learning purposes only