» » »

Push Push Lady Lightning Tabs (ver.2)

Artists:  A B C D E F G H I J K L M N O P Q R S T U V W X Y Z # 

Push Push Lady Lightning Tabs (ver.2)

Bang Camaro
Rating:
4.9/5 (26 votes)

Hard to play? Try these video lessons and learn fast.
                ---------------------------------------------------------------------------
                Push Push (Lady Lightning) - Bang Camaro
---------------------------------------------------------------------------

This has got to be one of my favorite Guitar Hero songs of all time and i got tired of 
junky tabs so I decided to make my own.

And yea I'm tabbing it out and dividing it into sections based on the Guitar Hero 2 
Mode. So if you play the tab from top to bottom you'll play the whole song in order so you 
have to look all over the tab for the right part!

I'm still working on the "big ending" parts os I'll add those in once I'm finished.

Tuning: Standard (EADGBe)

Intro a (Clean)

e|-------------------------------------------------------|
B|-------------------------------------------------------|
G|------------5-x-x-8-x-x-5h7-------------5-x-x----------|
D|xxxx-7-7-x-x----------------x-x-7-7-x-x----------------|
A|xxxx-----------------------------------------8-x-x-7---|
E|xxxx---------------------------------------------------|

e|-----------------------------------------------|
B|-----------------------------------------------|
G|-----------5-x-x-8-x-x-5h7------------5-----2--|
D|xx-7-7-x-x----------------x-x-7-7-----5-----3--|
A|xx--------------------------------x-8---x-8----|
E|xx---------------------------------------------|

e|-----------------------------------------------------|
B|-----------------------------------------------------|
G|-----------5-x-x-8-x-x-5h7-------------5-x-x---------|
D|xx-7-7-x-x-----------------x-x-7-7-x-x---------------|
A|xx------------------------------------------8-x-x-7--|
E|xx---------------------------------------------------|

e|-----------------------------------------------------------|
B|----------------------------------------8------------------|
G|-----------5-x-x-8-x-x-5h7--7h9p7-7h9p7---9-7h9p7-7h9p7----|
D|xx-7-7-x-x----------------------------------------------10-|
A|xx---------------------------------------------------------|
E|xx---------------------------------------------------------|

Intro b (Distortion)

e|--------------------------------------------------------|
B|--------------------------------------------------------|
G|-----------5-x-x-8-x-x-7*-------------5p0-x-x-----------|
D|xx-7-7-x-x----------------x-x-7-7-x-x-------------------|
A|xx--------------------------------------------8-x-x-7*--|
E|xx------------------------------------------------------|

e|---------------------------------------------------|
B|---------------------------------------------------|
G|-----------5-x-x-8-x-x-7*------------10-10-10-10---|
D|xx-7-7-x-x---------------x-x-7-7-x-x-10-10-10-10---|
A|xx------------------------------------8--8--7--7---|
E|xx-------------------------------------------------|

e|--------------------------------------------------------|
B|--------------------------------------------------------|
G|-----------5-x-x-8-x-x-7*-------------5p0-x-x-----------|
D|xx-7-7-x-x----------------x-x-7-7-x-x-------------------|
A|xx--------------------------------------------8-x-x-7*--|
E|xx------------------------------------------------------|

e|-------------------------------------------------|
B|-------------------------------------------------|
G|-----------5-x-x-8-x-x-7--9p8p7h9 7p6p5h7--------|
D|xx-7-7-x-x---------------------------------------|
A|xx----------------------------------------7-6-5--|
E|xx-----------------------------------------------|

Verse 1a

e|--------------------------5p3h5~-8p7h8~-10p8h10-15--|
B|5p3h5~-3p1h3~---------------------------------------|
G|-------------5p4h5*-2p1h2~--------------------------|
D|----------------------------------------------------|
A|----------------------------------------------------|
E|----------------------------------------------------|

e|12p10h12~-10p8h10~-8p7h8~-5p3h5~-8p7h8~-5p3h5~-10p8h10~-8\7\3--|
B|---------------------------------------------------------------|
G|---------------------------------------------------------------|
D|---------------------------------------------------------------|
A|---------------------------------------------------------------|
E|---------------------------------------------------------------|

Verse 1b

e|--------------------------------------------|
B|--------------------------------------------|
G|----------10-10-----------------10-10-------|
D|----10-10-------10-10-----10-10-------10-10-|
A|8-8-------------------8-8-------------------|
E|--------------------------------------------|
  xxxxxxxxxxxxxxxxxxxxxxxxxxxxxxxxxxxxxxxxxxxx

e|--------------------------------------|
B|--------------------------------------|
G|----------9-9---------------9-9-------|
D|------9-9-----9-9-------9-9-----9-9---|
A|10-10-------------10-10---------------|
E|--------------------------------------|
  xxxxxxxxxxxxxxxxxxxxxxxxxxxxxxxxxxx

e|--------------------------------------------|
B|--------------------------------------------|
G|----------10-10-----------------10-10-------|
D|----10-10-------10-10-----10-10-------10-10-|
A|8-8-------------------8-8-------------------|
E|--------------------------------------------|
  xxxxxxxxxxxxxxxxxxxxxxxxxxxxxxxxxxxxxxxxxxxx

e|----------------------------------------|
B|----------------------------------------|
G|----------------------------------------|
D|------9-9-10-10-9-9-------9-9-10-10-9-9-|
A|10-10---------------11-11---------------|
E|----------------------------------------|
  xxxxxxxxxxxxxxxxxxxxxxxxxxxxxxxxxxxxxxxx

Chorus 1

e|------------------------------------|
B|------------------------------------|
G|----------------------5p4-----------|
D|7===--10--10---3-3--3-----7p5---5h7-| x4
A|7===--10--10---3-3--3---------7-----|
E|5===---8---8---1-1--1---------------|

Verse 2a

e|------------------------8p7h8-5p3h5-10p8h10-7p5h5--|
B|----------5p3h5~-6p5h6~----------------------------|
G|5~-7p5h7~------------------------------------------|
D|---------------------------------------------------| x2
A|---------------------------------------------------|
E|---------------------------------------------------|

Verse 2b

e|--------------------------------------------|
B|--------------------------------------------|
G|----------10-10-----------------10-10-------|
D|----10-10-------10-10-----10-10-------10-10-|
A|8-8-------------------8-8-------------------|
E|--------------------------------------------|
  xxxxxxxxxxxxxxxxxxxxxxxxxxxxxxxxxxxxxxxxxxxx

e|--------------------------------------|
B|--------------------------------------|
G|----------9-9---------------9-9-------|
D|------9-9-----9-9-------9-9-----9-9---|
A|10-10-------------10-10---------------|
E|--------------------------------------|
  xxxxxxxxxxxxxxxxxxxxxxxxxxxxxxxxxxx

e|--------------------------------------------|
B|--------------------------------------------|
G|----------10-10-----------------10-10-------|
D|----10-10-------10-10-----10-10-------10-10-|
A|8-8-------------------8-8-------------------|
E|--------------------------------------------|
  xxxxxxxxxxxxxxxxxxxxxxxxxxxxxxxxxxxxxxxxxxxx

e|----------------------------------------|
B|----------------------------------------|
G|----------------------------------------|
D|------9-9-10-10-9-9-------9-9-10-10-9-9-|
A|10-10---------------11-11---------------|
E|----------------------------------------|
  xxxxxxxxxxxxxxxxxxxxxxxxxxxxxxxxxxxxxxxx

Chorus 2

e|------------------------------------|
B|------------------------------------|
G|----------------------5p4-----------|
D|7===--10--10---3-3--3-----7p5---5h7-| x4
A|7===--10--10---3-3--3---------7-----|
E|5===---8---8---1-1--1---------------|

Bridge a (Bass Solo Thing)

Bridge b

e|----------------------------------------------|
B|----------------------------------------------|
G|----------5--7/8\7--5-7-5---------------------|
D|7--10--7--5--7/8\7--5-7-5--7--10--7--5--10\7--| x2
A|7--10--7--3--5/6\5--3-5-3--7--10--7--5--10\7--|
E|5---8--5-------------------5---8--5--3---8\5--|

Bridge c

e|---------------------------------------------------------------|
B|---------------------------------------------------------------|
G|---------------------------------------------------------------|
D|----------------------------5h7--------------------------------| x2
A|------5---------------5---------------5---------------5--------|
E|5-8-5---8-5-3-5-0-8-5---8-5-----5-8-5---8-5-3-5-0-8-5---8-5-5--|

Guitar Solo

e|12====15===12\10-19-19-19-19-19-19===--|
B|---------------------------------------|
G|---------------------------------------|
D|---------------------------------------|
A|---------------------------------------|
E|---------------------------------------|

e|---------------------------------------------------------|
B|------------------------------------------------------8--|
G|------------7------7----7-9----7-9-7-9-10-7-9-10-9-10----|
D|7-9-10-9-10---9-10---10-----10---------------------------|
A|---------------------------------------------------------|
E|---------------------------------------------------------|

e|---------------------------------------------8-------8----8-10--|
B|-----8----8-10----8-10-8-10-11-8-10-11-10-11---10-11---11-------|
G|9-10---10------10-----------------------------------------------|
D|----------------------------------------------------------------|
A|----------------------------------------------------------------|
E|----------------------------------------------------------------|

e|---8-10-8-10-11-8-10-11-10-11-13-10-11-13-11-13-15-13-12-13--|
B|11-----------------------------------------------------------|
G|-------------------------------------------------------------|
D|-------------------------------------------------------------|
A|-------------------------------------------------------------|
E|-------------------------------------------------------------|

e|15-13-12-13-17-13-12-13-17-13-12-13/20~~~--|
B|-------------------------------------------|
G|-------------------------------------------|
D|-------------------------------------------|
A|-------------------------------------------|
E|-------------------------------------------|

Chorus 3

e|------------------------------------|
B|------------------------------------|
G|----------------------5p4-----------|
D|7===--10--10---3-3--3-----7p5---5h7-| x4
A|7===--10--10---3-3--3---------7-----|
E|5===---8---8---1-1--1---------------|

Chorus 4

e|-----------------------------|
B|-----------------------------|
G|-----------------------------|
D|7-7-7-7xx10x10x3-3-3-3xx5x5--| x4
A|7-7-7-7xx10x10x3-3-3-3xx5x5--|
E|5-5-5-5xx-8x-8x1-1-1-1xx3x3--|

Outro

e|------------------------------------------------|
B|-----------------------10-10-10~~~~-------------|
G|-------------9-9-9~~~~--------------------------|
D|10-10-10~~~~-----------------------10-10-10~\7--|
A|------------------------------------------------|
E|------------------------------------------------|

Big Ending 1
(Coming Soon)

Big Ending 2
(Coming Soon)

End on...
e|----|
B|----|
G|----|
D|7\--|
A|----|
E|----|

=========================================================================
-~{the LEGEND of the rent was way hardcore}~-
| /  slide up
| \  slide down
| h  hammer-on
| p  pull-off
| ~  vibrato
| *  pinch harmonic
| x  Mute note
| =  Let Ring
===========================================================================
            
Hard to play? Try these video lessons and learn fast. | Correct




comments powered by Disqus
↑ Back to top | Tablatures and chords are parodies/interpretations of the original songs. You may use it for private study, scholarship, research or language learning purposes only