» » »

Bang Camaro, Push Push Lady Lightning Bass tabs (ver.1)

Artists:  A B C D E F G H I J K L M N O P Q R S T U V W X Y Z # 

Push Push Lady Lightning Bass tabs (ver.1)

Bang Camaro Tabs
Rating:
1/5 (2 votes)
Push Push Lady Lightning lessons Tabs too difficult? Try these video lessons and learn fast
                Intro
|---------------------------------------------------------------------------|
|---------------------------------------------------------------------------|
|----------------4--------------------4--6---6---6---6---8------------------|
|6---6---6---6-------2---2---2---2-----------------------------4--4--44445--|
Verse
|---------------------------------------------------------------------------|
|---------------------------------------------------------------------------|
|---8--8--8--8----10--10--10--10----8--8--8--8--10-10-10-10-11-11-11-11-----|
|---------------------------------------------------------------------------|
Bridge
|---------------------------------------------------------------------------|
|---------------------------------------------------------------------------|
|--------------8--------10---10----------------------8----------------------|
|6---6---6---6---6-6--8---8-------6---6---6---6----6----6-8\3---------------|

I have no idea how chorus goes.
            
Submit corrections

comments powered by Disqus
↑ Back to top | Bang Camaro Bass for Push Push Lady Lightning. Lyrics for acoustic guitar and electric guitar. Tablatures and chords are parodies/interpretations of the original songs. You may use it for private study, scholarship, research or language learning purposes only