» » »

Hallelujah Tabs (ver.5)

Artists:  A B C D E F G H I J K L M N O P Q R S T U V W X Y Z # 

Hallelujah Tabs (ver.5)

Bamboo
Rating:
3/5 (8 votes)

Hard to play? Try these video lessons and learn fast.
                

intro:
  Dm
|--3---|
|--1---|
|--2---|(4x)
|------|
|------|
|------|

this part is P.M.

|-------------------------------------------------|
|-------------------------------------------------|
|-------------------------------------------------|(2x)
|-------------------------------------------------|                         
|------888-8/10--77-----55------------------------|
|--555--------------888-----77--3--5--------------|


VERSE 1 (light struming with wah!! effect)

anong balita sa radio at t.v......
  Am   F    C   G
|-5----1----3---3-----|
|-5----1----5---3-----|
|-5----2----5---4-----|
|-7----3----5---5-----| (2x)
|-7----3----3---5-----|
|-5----1--------3-----|

tapos
  Dm
|--3---|
|--1---|
|--2---|(2x)
|------|
|------|
|------|


Verse 2
bato bato sa langit tamaan wag magalit....

Light struming lng "clean effect"

|-------------------------------------------------|
|-------------------------------------------------|
|-------------------------------------------------|(2x)
|-------------------------------------------------|                         
|------888-8/10--77-----55------------------------|
|--555--------------888-----77--3--5--------------|


pre-chorus:
may kasama ka kapatid kaibigan 

  F   C   G      
|-1---3---3-----------|
|-1---5---3-----------|
|-2---5---4-----------|
|-3---5---5-----------|
|-3---3---5-----------|
|-1-------3-----------|

hanggat ako'y humihinga may pag asa pa!!...

  D   C         
|---------------------|
|---------------------|
|-7---10--------------|
|-7---10--------------|
|-5---8---------------|
|---------------------|






Chorus:
oohhhh!!!....ooohhhh!!!!....hallelu...hallelujah...
sinong sawa... sinong galet... sumigaw ngayung gabe

Am    F    C   G    F    
|-5----1----3---3---1-----|
|-5----1----5---3---1-----|
|-5----2----5---4---2-----|(2x)
|-7----3----5---5---3-----|
|-7----3----3---5---3-----|
|-5----1--------3---1-----|



tapos:
  Em   G
|--0-------|
|--0-------|
|--0-------|
|--2---5---|
|--2---5---|
|--0---3---|



before the rap 
chords:

Am    F    C   G
|-5----1----3---3-----|
|-5----1----5---3-----|
|-5----2----5---4-----|
|-7----3----5---5-----|
|-7----3----3---5-----|
|-5----1--------3-----|

rap:( no chords )
 "save me from the fire" eto gawin nyo

Dm
|--3---|
|--1---|
|--2---|(2x)
|------|
|------|
|------|

Verse 3:
ngayong gabi ako ang sundalo mo...
at habang 2log akoy gising nkabantay sayo hooohhhhooooo!!!

Am    F    C   G
|-5----1----3---3-----|
|-5----1----5---3-----|
|-5----2----5---4-----| (3x)
|-7----3----5---5-----|
|-7----3----3---5-----|
|-5----1--------3-----|


Repeat:
pre-chorus:

after pre-chorus:
play the chorus again:


Chorus:
oohhhh!!!....ooohhhh!!!!....hallelu...hallelujah...
sinong sawa... sinong galet... sumigaw ngayung gabe
hallelu...hallelujah...


Am    F    C   G    F    
|-5----1----3---3---1-----|
|-5----1----5---3---1-----|
|-5----2----5---4---2-----|(2x)
|-7----3----5---5---3-----|
|-7----3----3---5---3-----|
|-5----1--------3---1-----|


guitar solo:(wah effect)
|-------2----2----------------2----2----------------|
|----1----------1----------1----------1-------------|
|-3----------------3----3----------------3----------|
|---------------------------------------------------|
|---------------------------------------------------|
|---------------------------------------------------|


|----------------------------------------------------------|
|--8-8----5-5----3-3----1-1--------------------------------|
|----------------------------------------------------------|
|-----------------------------5h6---5h6---5h6---5h6---5h6--|
|----------------------------------------------------------|
|----------------------------------------------------------|

|----------------------------------------------------------|
|-5--8--10--12--10--12--13--15--14--15--17-----------------|
|----------------------------------------------------------|
|----------------------------------------------------------|
|----------------------------------------------------------|
|----------------------------------------------------------|


|--17-17--------17-17--------17----|
|---------17-17-------17-17----17--|
|----------------------------------|
|----------------------------------|
|----------------------------------|
|----------------------------------|

(eto yung mabilis na part pate wah! wah! mabilis din)
|--15h17--12h17--12h17--12h17--12h17--12h17-|
|-------------------------------------------|
|-------------------------------------------|
|-------------------------------------------|
|-------------------------------------------|
|-------------------------------------------|



sinong sawa... sinong galet... sumigaw ngayung gabe
hallelu...hallelujah...

Am    F    C   G    F    
|-5----1----3---3---1-----|
|-5----1----5---3---1-----|
|-5----2----5---4---2-----|(2x)
|-7----3----5---5---3-----|
|-7----3----3---5---3-----|
|-5----1--------3---1-----|



outro:
oohhhh!!!....ooohhhh!!!!....hallelu...hallelujah...


Am    F    C   G    F    
|-5----1----3---3---1-----|
|-5----1----5---3---1-----|
|-5----2----5---4---2-----|(2x)
|-7----3----5---5---3-----|
|-7----3----3---5---3-----|
|-5----1--------3---1-----|

100% corect yan pakingan nyo sa cd while you play it!!!
okie!!!!!!


or txt me 0927-653-99-71
thank you !!!!!
            
Hard to play? Try these video lessons and learn fast. | Correct




comments powered by Disqus
↑ Back to top | Tablatures and chords are parodies/interpretations of the original songs. You may use it for private study, scholarship, research or language learning purposes only