» » »

Bamboo, Hallelujah Bass tabs (ver.3)

Artists:  A B C D E F G H I J K L M N O P Q R S T U V W X Y Z # 

Hallelujah Bass tabs (ver.3)

Bamboo Tabs
 Rating:
4.2/5 (5 votes)
Hallelujah lessons Tabs too difficult? Try these video lessons and learn fast
1
                -------------------------------------------------------------------------------
			     Hallelujah - Bamboo
-------------------------------------------------------------------------------


Tuning: EADG

Intro together with drum's rolling
G|---------------|------------------|--------------------|
D|---------------|--3-3--3-3-3-5-5--|--2-----------------|4x
A|--0--0--0-0-0--|------------------|----3-3--5-5-2-2-2--|
E|---------------|------------------|--------------------|

Main Intro
G|---------------|------------------|--------------------|
D|--7--7--7-7-7--|--3-3--2-3-3-5-5--|--2-----------------|2x
A|---------------|------------------|----3-3--5-5-2-2-2--|
E|---------------|------------------|--------------------|

Verse I
G|----------|----------|----------|----------|
D|----------|----------|----------|----------|4x
A|----------|----------|--3-------|----------|
E|--5-------|--1-------|----------|--3-------|
     Anong balita..........Sa radyo at tv

Fill
G|---------------|------------------|--------------------|
D|--7--7--7-7-7--|--3-3--2-3-3-5-5--|--2-----------------|2x
A|---------------|------------------|----3-3--5-5-2-2-2--|
E|---------------|------------------|--------------------|

Verse II
G|----------|--------------|-----------|--------------|
D|----------|--------------|-----------|--------------|
A|----------|--------------|--3--3-----|--------------|
E|--5--5----|--1-0h1-----1-|-----------|--3-0h3-----3-|
     Bato-bato sa langit....   Tamaan 'wag magalit

Refrain
G|-----------|--------------|----------------------------------|
D|-----------|--------5-5---|----------------------------------|
A|-----/3----|----3-3-------|--5-5-5-5-5-5-5-5-5-5-5-5-5-5-5-5-|
E|--1--------|-3------------|----------------------------------|
  May kasama.. kaibigan....    hanggat ako'y humihinga

G|-----------------------------------|
D|-----------------------------------|
A|--8-8-8-8-8-8-8-8-8-8-8-8-8-8-8-8--|
E|-----------------------------------|
    May pag asa pa!!!

Chorus
G|-----------------------------------|-----------------------------------|
D|-----------------------------------|-----------------------------------|
A|--0-0-0-0-0-0-0-0-0-0-0-0-0-0-0-0--|-----------------------------------|
E|-----------------------------------|--1-1-1-1-1-1-1-1-1-1-1-1-1-1-1-1--|
   Oooohhhh   oohhhhh............
G|-------------------|-------------------|-----------------------------------|
D|-------------------|-------------------|-----------------------------------|
A|--3-3-3-3-3-3-3-3--|-------------------|-----------------------------------|
E|-------------------|--3-3-3-3-3-3-3-3--|--8-8-8-8-8-8-8-8-8-8-8-8-8-8-8-8--|  
hallelujahh.....

G|-----------------------------------|-----------------------------------|
D|-----------------------------------|-----------------------------------|
A|--0-0-0-0-0-0-0-0-0-0-0-0-0-0-0-0--|-----------------------------------|
E|-----------------------------------|--1-1-1-1-1-1-1-1-1-1-1-1-1-1-1-1--|
   Sinong sawa                            Sumigaw ngayong gabi...
G|-------------------|-------------------|-----------------------------------|
D|-------------------|-------------------|-----------------------------------|
A|--3-3-3-3-3-3-3-3--|-------------------|-----------------------------------|
E|-------------------|--3-3-3-3-3-3-3-3--|--8-8-8-8-8-8-8-8-8-8-8-8-8-8-8-8--|   
      Hallelujajahhh!!!

G|------------------|
D|------------------|
A|------------------|
E|--0--0--0--3-3-3--|
   halle.eh..heh.he.heh
Fill
G|----------|--------------|-----------|--------------|
D|----------|--------------|-----------|--------------|
A|----------|--------------|--3--3-----|--------------|
E|--5--5----|--1-0h1-----1-|-----------|--3-0h3-----3-|

Rap
G|----------|--------------|-----------|--------------|
D|----------|--------------|-----------|--------------|
A|----------|--------------|--3--3-----|--------------|
E|--5--5----|--1-0h1-----1-|-----------|--3-0h3-----3-|

Verse III
G|--------|--------|--------|-------------------|
D|--------|--------|--------|-------------------|
A|--------|--------|--3--3--|-------------------|
E|--5--5--|--1--1--|--------|--3--3-3-3-3-3-3-3-|
 Ngayong gabi..habang ika'y tolug...Nakabantay

G|----------|--------------|-----------|--------------|
D|----------|--------------|-----------|--------------|4x
A|----------|--------------|--3--3-----|--------------|
E|--5--5----|--1-0h1-----1-|-----------|--3-0h3-----3-|
   Sa'yo                     kasi mahal kita.........
   Kita mo....               pag-ibig ko sa'yo lamang

Repeat Refrain
Repeat Chorus
Adlib (do bass on chorus)
Repeat Chorus (till fade)

| /  slide up
| \  slide down
| h  hammer-on
| p  pull-off
| ~  vibrato
| +  harmonic
| x  Mute note
===============================================================================
            
Submit corrections

comments powered by Disqus
↑ Back to top | Bamboo Bass for Hallelujah. Lyrics for acoustic guitar and electric guitar. 1 Tablatures and chords are parodies/interpretations of the original songs. You may use it for private study, scholarship, research or language learning purposes only