>
 >
Hallelujah

Hallelujah Guitar Tabs

Bamboo - Hallelujah chords, tabs, tablatures, lyrics

Guitar lessons | Add/correct | Request | Top 50 tabs Artists:  A B C D E F G H I J K L M N O P Q R S T U V W X Y Z 0-9

Hallelujah Guitar Tabs – Bamboo

CD, Sheet music, Poster

Do you like Hallelujah? Share with your friends now
Bass TabsBass Tabs v2Bass Tabs v3Bass Tabs v4Bass Tabs v5ChordsTabsTabs v2Tabs v3Tabs v4Tabs v5Tabs v6Tabs v7Tabs v8

           EADGBe
CHORDS: Am xx221x or 577555
       FM7 xx321x
         C 030210
Power Chords:           
        C5 x355xx  
        D5 x577xx  
        B5 x244xx
        G5 355xxx
        F5 133xxx
        A5 577xxx

Intro: Bass and Drum Rolls

do this:
e|------------------------|
B|------8-----------------|
G|----5-------------------| 
D|--7---------------------|  
A|------------------------|
E|------------------------|


Intro: Am - FM7 - C5 - D5 - B5 (x2)

e|----------------------------------------------|
B|----------------------------------------------|
G|----------------------------------------------|
D|------3333--3h5--222--------------------------|
A|-000------------------33---55--222------------|
E|----------------------------------------------|

Verse 1: *Palm Mute*
Am - FM7 - C5 - G5
Ano nang balita sa radyo at tv?
Ganun parin kumakapa sa dilim
Minsan naisip ko nang umalis nalang dito
Kalimutan ang lahat, lumipad, lumayo, oh

e|------------------------|
B|------8-----------------|
G|----5-------------------|  2 times
D|--7---------------------|  
A|------------------------|
E|------------------------|


Verse 2: *Palm Mute*
Am - FM7 - C5 - G5
Bato bato sa langit, ang tamaan huwag magalit
Alam naman natin kung sino ang tuso
Sa bawat sumpang umiiyak, singil ko ay piso
Sa bawat lumuluhang dukha, alay ko'y dugo


Pre-chorus:
FM7 - C 
May kasama ka kapatid, kaibigan
D5---
Hanggat ako'y humihinga
F5---
May pag-asa pa..


Chorus: *Power Chords*
A5 - F5 - C5 - G5
Ohoo Ohoooo...
Halleluuu, hallelujaaah
Sinong sawa, sinong galit
Sumigaw ngayong gabi
Halleluuu, Hallelujaah
Halellujah

Before Rap: Lead Guitar
*get the timing this is easy *tama na to*
e|------------------------------|
B|---------------6-55-6--5-3----|
G|------------5-----------------|
D|--5h7-5--7--------------------|
A|------------------------------|
E|------------------------------|

Rap Part: *isa lang pala chord dito*
FM7--- dinig ko plucking e...

Blinded by the light
to see these faces in front of me. 
Yes we have, and we begin we are the scars from within
Im ashamed of what I become in the mirror,
The face of my one true enemy
Hallelujah! Some music!
Let's Take control!
If I have to take this message door to door
See myself in every soul!
With the mission
I'll make this my personal mission!
Save me from the fire, from the fire, 
Save me from the fire!

Verse 3: *Palm Mute*
Am - FM7 - C5 - G5
Ngayong gabi
Ako ang sundalo mo
Habang ika'y tulog 
Ako'y gising nakabantay sa iyo,
Kasi mahal kita, kita mo, 
Pag-ibig ko sayo lamang...

Pre-Chorus:
FM7 - C 
May kasama ka kapatid, kaibigan
D5---
Hanggat ako'y humihinga
F5---
May pag-asa pa..

then...
Chorus: A5 - F5 - C5 - G5


Solo: *wah pedal* effects
|-----3-----------3----------------------------------------------------|
|----1--1--------1--1--------88--55--33--11----------------------------|
|--/2----2-0---/2----2-0-----------------------------------------------|
|-----------------------------------------------5--5/7-5/7-5/7-5/7-----|
|----------------------------------------------------------------------|
|----------------------------------------------------------------------|

|-----------------------------------------17(17)-------17(17)----------|
|-5--8--10--12--10--12--13--15--13--15-17--------17(17)-------17(17)---|
|----------------------------------------------------------------------|
|----------------------------------------------------------------------|
|----------------------------------------------------------------------|
|----------------------------------------------------------------------|

*fast part* eto yung last part* 

|---15h17----17----15/17--15/17--15/17--15/17--15/17--------|
|---------17------------------------------------------------|
|-----------------------------------------------------------|
|-----------------------------------------------------------|
|-----------------------------------------------------------|
|-----------------------------------------------------------|

after solo: Outro

Outro: 
A5 - F5 - C5 - G5
Sinong sawa, sinong galit
Sumigaw ngayong gabi
Haleluu, Halleluiaah (2x)

finish--------------->





Comments


Popular Bamboo tabs & chords
Ang Gugma Ni Arshill Chords
Kalayaan 1 Chords
Masaya 2 Chords
Much Has Been Said Chords
As The Music Plays The Band 2 Tabs
Mr Clay 3 Tabs
These Days 2 Tabs
Todo Lakas Tabs
Umagang Kay Ganda Tabs
Blown Away Ukulele


Song lyrics



↑ Back to top | Tablatures and chords are parodies/interpretations of the original songs. You may use it for private study, scholarship, research or language learning purposes only
© 2014 AZChords.com Contact us | Privacy policy | DMCA | Add/correct tabs | Request tabs | Top 50 tabs