» » »

Hallelujah Bass tabs (ver.2)

Artists:  A B C D E F G H I J K L M N O P Q R S T U V W X Y Z # 

Hallelujah Bass tabs (ver.2)

Bamboo
Rating:
5/5 (1 vote)

Hard to play? Try these video lessons and learn fast.
                Hallelujah by Bamboo

My 2nd tab,hope u like it!!
Please vote...this is 98% correct..i hve watched crefully their bassman during album tours!

Tuning: EADG

1st Intro: together with drum's rolling

G----------------------------------------------|
D--------------3-3-0-3-3-5-5--2----------------|
A--0--0--0-0-0------------------3-3--5-5-2-2-2-|
E----------------------------------------------|

2nd Intro: all instruments

G----------------------------------------------|
D--------------3-3-0-3-3-5-5--2----------------|
A--7--7--7-7-7------------------3-3--5-5-2-2-2-|
E----------------------------------------------|

1st Verse:

G-----|-----|-----|-----||
D-----|-----|-----|-----||repeat 4x
A-----|-----|--3--|-----||
E--5--|--1--|-----|--3--||
 anong balita sa ....

Repeat 2nd Intro:

2nd Verse:

G------------------|-----------------||
D------------------|-----------------||repeat 4x
A------------------|-3--3------------||
E--5--5--1-0h1----1|-------3-0h3----3||
 bato-bato sa langit...

Refrain:

G----------------------------|--------------------------------|
D------------------------5-5-|--------------------------------|
A-----s3------------3-3------|-5-5-5-5-5-5-5-5-5-5-5-5-5-5-5-5|
E--1-----------4--------------|--------------------------------|
  may kasama ka kapatid....    hangga't ako'y humihinga....


G----------------------------------|
D----------------------------------|
A--8-8-8-8-8-8-8-8-8-8-8-8-8-8-8-8-|
E----------------------------------|
 may pag asa pa....
Chorus:

G---------------------------------|---------------------------------||
D---------------------------------|---------------------------------||
A--0-0-0-0-0-0-0-0-0-0-0-0-0-0-0-0|-8-8-8-8-8-8-8-8-8-8-8-8-8-8-8-8-||
E---------------------------------|---------------------------------||
 Oooohh.....         Oohhhhh.....      Ooooohh...        Oohhhh...

G------------------|-----------------|---------------------------------||
D------------------|-----------------|---------------------------------||
A--3-3-3-3-3-3-3-3-|-----------------|---------------------------------||
E------------------|-3-3-3-3-3-3-3-3-|-1-1-1-1-1-1-1-1-1-1-1-1-1-1-1-1-||
  Halleluu............ooohhh            Hallelujah.....

G---------------------------------|---------------------------------||
D---------------------------------|---------------------------------||
A--0-0-0-0-0-0-0-0-0-0-0-0-0-0-0-0|-8-8-8-8-8-8-8-8-8-8-8-8-8-8-8-8-||
E---------------------------------|---------------------------------||
    Sinong Sawa...Sinong Galit....   Sumigaw...Ngayong Gabi

G------------------|-----------------|---------------------------------||
D------------------|-----------------|---------------------------------||
A--3-3-3-3-3-3-3-3-|-----------------|---------------------------------||
E------------------|-3-3-3-3-3-3-3-3-|-1-1-1-1-1-1-1-1-1-1-1-1-1-1-1-1-||
  Halleluu............ooohhh            Hallelujah.....

Rap: Do bassline on 2nd verse
3rd Verse: Do bassline on 2nd verse
Refrain:
Chorus:
Adlib:do bassline on chorus
Chorus: Till fade

That's all ive got!!Thanx!!Enjoy!!

Hi to my wife and son!!I LOVE YOU!!
Try also my TENSIONADO bass tab!!
            
Hard to play? Try these video lessons and learn fast. | Correct




comments powered by Disqus
↑ Back to top | Tablatures and chords are parodies/interpretations of the original songs. You may use it for private study, scholarship, research or language learning purposes only