>
 >
Peace Man

Peace Man Guitar Tabs

Bamboo - Peace Man chords, tabs, tablatures, lyrics

Guitar lessons | Add/correct | Request | Top 50 tabs Artists:  A B C D E F G H I J K L M N O P Q R S T U V W X Y Z 0-9

Peace Man Guitar Tabs – Bamboo

CD, Sheet music, Poster

Do you like Peace Man? Share with your friends now
ChordsTabsTabs v2Tabs v3Ukulele
-NR-



INTRO:
e|-----------------------------------|
B|-----------------------------------|
G|--3-5-7-5-4-----2/5-3-5-7-5-4------|
D|------------1-2---------------1-2--|
A|-----------------------------------|
E|-----------------------------------|


E|--------------------------------------------|
B|--------------------------------------------|
G|-10-12-14-12-10-8-12-14-12-10---------------|
D|------------------------------10-5----------|  
A|-----------------------------------5-3------|
E|--------------------------------------------|

verse:1&2
I have words to say to you my friend...
E|--------------------------------------------|
B|--------------------------------------------|
G|------------5-------------------------------|
D|--7----5----5----5--------------------------|  
A|--7----5----3----5--------------------------|
E|--5----3---------3--------------------------|


Refrain:
And then we'll say
e|----3------4----------|
B|----3------4----------| 
G|----2------3----------|  
D|----2------4----------|
A|----------------------|
E|----------------------|


Repeat Intro:


Adlip:
E|--------------------------------------------|
B|---17-15------------------------------------|
G|---------17-15-17-15-13-11-12---------------|
D|--------------------------------------------| 
A|--------------------------------------------|
E|--------------------------------------------|



SOLO: ( sorry kung di masyadong kuha )
E|---------------------------------------------------|
B|---------------------------------------------------|
G|-----2-4-2-1-4-2----------1-4-5-7-5--5-7-5-5-7-11-9|
D|-1h2-------------4--1-2-3--------------------------|
A|---------------------------------------------------|
E|---------------------------------------------------|

E|------------------------------------------------------------|
B|-----------------14p12--------------------------------------|
G|-7h9-11-13-13p11-------14-14-12-12-10-10-10-10-10-14-12-10--|
D|------------------------------------------------------------| 
A|------------------------------------------------------------|
E|------------------------------------------------------------|

E|------------------------------|
B|-18-18-16-14-------------14---|
G|-------------14-12-14-16------|
D|------------------------------| 
A|------------------------------|
E|------------------------------|

Outro:
e|---------------3-------|
B|---------------3-------| 
G|---------------2-------|  
D|--5/7-5--------3-------|
A|--------5-3------------|
E|------------2----------|





Comments


Popular Bamboo tabs & chords
Waiting In Vain Bass Tabs
Hudas Chords
Kalayaan 1 Chords
Masaya Chords
Probinsyana Chords
Truth Chords
Argos 1 Tabs
Kailan 1 Tabs
Mr Clay (Intro) Tabs
247 Ukulele


Song lyrics



↑ Back to top | Tablatures and chords are parodies/interpretations of the original songs. You may use it for private study, scholarship, research or language learning purposes only
© 2014 AZChords.com Contact us | Privacy policy | DMCA | Add/correct tabs | Request tabs | Top 50 tabs