>
 >
Infected 2

Infected 2 Guitar Tabs

Bad Religion - Infected 2 chords, tabs, tablatures, lyrics

Guitar lessons | Add/correct | Request | Top 50 tabs Artists:  A B C D E F G H I J K L M N O P Q R S T U V W X Y Z 0-9

Infected 2 Guitar Tabs – Bad Religion

CD, Sheet music, Poster

Do you like Infected 2? Share with your friends now
Bass TabsBass Tabs v2Drum TabsTabsTabs v2Tabs v3Tabs v4
tuning:standard
intro-6x guitar 1
e|---------------------------------------------------------------------------|
B|---------------------------------------------------------------------------|
G|---------------------------------------------------------------------------|
D|9999-5555----------7777----------------------------------------------------|
A|9999-5555-11111111-7777----------------------------------------------------|
E|7777-3333-9-9-9-9--5555----------------------------------------------------|
  xxxx xxxx xxxxxxxx xxxx
guitar 2 intro 2x
e|---------------------------------------------------------------------------|
B|---------------------------------------------------------------------------|
G|12-10-12--12-10-12--12-10-12-1212-121212--121212/-\121212/-\121212/--------|
D|12-10-12--12-10-12--12-10-12-1212-121212-----------------------------------|
A|---------------------------------------------------------------------------|
E|---------------------------------------------------------------------------|
verse both guitars-4x
e|---------------------------------------------------------------------------|
B|---------------------------------------------------------------------------|
G|---------------------------------------------------------------------------|
D|9999-5555----------7777----------------------------------------------------|
A|9999-5555-11111111-7777----------------------------------------------------|
E|7777-3333-9-9-9-9--5555----------------------------------------------------|
prechorus-4x
e|---------------------------------------------------------------------------|
B|---------------------------------------------------------------------------|
G|---------------------------------------------------------------------------|
D|---------------------------------------------------------------------------|
A|55-77-99-------------------------------------------------------------------|
E|33-55-77-------------------------------------------------------------------|
chorussame as verse riff 5x
(verse)
(prechorus)
(chorus)
interlude pt 1 - 3x
e|---------------------------------------------------------------------------|
B|---------------------------------------------------------------------------|
G|---------------------------------------------------------------------------|
D|77-5-2-5-------------------------------------------------------------------|
A|77-5-2-5-------------------------------------------------------------------|
E|55-3---3-------------------------------------------------------------------|
interlude pt. 2-3x
e|---------------------------------------------------------------------------|
B|---------------------------------------------------------------------------|
G|---------------------------------------------------------------------------|
D|22-3-5-3-------------------------------------------------------------------|
A|22-3-5-3-------------------------------------------------------------------|
E|---1-3-1-------------------------------------------------------------------|
(interlude pt 1)
guitar solo
e|-------------------------15------------------------------------------------|
B|----------------------15---15-13-------------------------------------------|
G|14v-14b-11-13-11---13-----------14b-14-13-11-14-14-14-14-------------------|
D|----------------13---------------------------------------------------------|
A|---------------------------------------------------------------------------|
E|---------------------------------------------------------------------------|
(chorus)
(chorus)
the guitar solo might be wrong because i did it by ear but everything else Sound perfect.





Comments


Popular Bad Religion tabs & chords
21st Century (Digital Boy) Bass Tabs
Billy 1 Chords
You Chords
Sanity Drum Tabs
Don't Sell Me Short Tabs
Gods Love Tabs
Hear It Tabs
Leaders And Followers Tabs
Shattered Faith 2 Tabs
Were Only Gonna Die From Our Own Arrogance Tabs


Song lyrics



↑ Back to top | Tablatures and chords are parodies/interpretations of the original songs. You may use it for private study, scholarship, research or language learning purposes only
© 2014 AZChords.com Contact us | Privacy policy | DMCA | Add/correct tabs | Request tabs | Top 50 tabs