» » »

Bad Religion, Infected Tabs (ver.2)

Artists:  A B C D E F G H I J K L M N O P Q R S T U V W X Y Z # 

Infected Tabs (ver.2)

Bad Religion Tabs
 Rating:
4/5 (4 votes)
Infected lessons Tabs too difficult? Try these video lessons and learn fast
1
                Main  :
E|---------------------------------------|
B|---------------------------------------|
G|--------------------5-5-5----7-7-7-----|
D|--7-7-7----3-3-3----5-5-5----7-7-7-----|  (3x)
A|--7-7-7----3-3-3--0-3-3-3--2-5-5-5-----|
E|--5-5-5--0-1-1-1--------------------2--|

E|---------------------------------------|
B|---------------------------------------|
G|--------------------5-5-5--------------|
D|--7-7-7----3-3-3----5-5-5----5-5-5-----|  (1x)
A|--7-7-7----3-3-3--0-3-3-3--0-5-5-5-----|
E|--5-5-5--0-1-1-1-------------3-3-3--2--|

chorus rythm

E|---------------------------------------|
B|---------------------------------------|
G|--------------------5-5-5--------------|
D|--7-7-7----3-3-3----5-5-5----5-5-5-----|
A|--7-7-7----3-3-3--0-3-3-3--0-5-5-5-----|
E|--5-5-5--0-1-1-1-------------3-3-3-----|

E|---------------------------------------|
B|---------------------------------------|
G|---------------------------------------|
D|--7-7-7-8-8-8---3-3-3-5-5-5------------|
A|--7-7-7-8-8-8---3-3-3-5-5-5------------|
E|--5-5-5-6-6-6---1-1-1-3-3-3------------|

Interlude:

E|---------------------------------|
B|---------------------------------|
G|---------------------------------| (2x)
D|---------------------------------|
A|--2-2-0------2-2-2-2-0-----------|
E|--------2-2------------2-2-------|

E|---------------------------|
B|---------------------------|
G|---------------------------|
D|---------------------------|
A|---------------------------|
E|--2-2-0-3--2---2-2-0-3-2---|
            
Submit corrections

comments powered by Disqus
↑ Back to top | Bad Religion Tabs for Infected. Lyrics for acoustic guitar and electric guitar. 1 Tablatures and chords are parodies/interpretations of the original songs. You may use it for private study, scholarship, research or language learning purposes only