>
 >
Infected

Infected Bass Tabs

Bad Religion - Infected chords, tabs, tablatures, lyrics

Guitar lessons | Add/correct | Request | Top 50 tabs Artists:  A B C D E F G H I J K L M N O P Q R S T U V W X Y Z 0-9

Infected Bass Tabs – Bad Religion

CD, Sheet music, Poster

Do you like Infected? Share with your friends now
Bass TabsBass Tabs v2Drum TabsTabsTabs v2Tabs v3Tabs v4
G|-------------------------|    G|-------------------------|
D|-------------------------|    D|-------------------------|
A|-----------0-111-2-333-2-| x7 A|-----------0-111-0-------| x1
D|-555-0-111---------------|    D|-555-0-111---------222---|


G|---------------------------|      G|---------------------|
D|---------------------------|      D|---------------------|
A|-----------0-111-2-333-2---| x3   A|---------0-11-0------| x1
D|-555-0-111-----------------|      D|-55-0-11--------33---|

G|----------------------------------------|
D|----------------------------------------|
A|-----------------1-1-----66665-----6665-|
D|-5-550-6-6-1-110-----5550-------550-----|

G|---------------------------------------------------------------------------|
D|---------------------------------------------------------------------------|
A|---------------------------------------------------------------------------|
D|-5-555-6-6-1-110-11-11-1/12/1----------------------------------------------|

G|-------------------------------------------|    G|----------------|
D|-------------------------------------------|    D|----------------|
A|-----------0-111-0---0-1-3-----------------| x2 A|----------------|
D|-555-0-111---------3-------5-5-6-6-000-22--|    D|-55555555-66666-|

G|---------------------------|      G|-------------------------|
D|---------------------------|      D|-------------------------|
A|-----------0-111-2-333-2---| x3   A|-----------0-111-0-------| x1
D|-555-0-111-----------------|      D|-555-0-111---------333---|

G|----------------------------------------|
D|----------------------------------------|
A|-----------------1-1-----66665-----6665-|
D|-5-550-6-6-1-110-----5550-------550-----|

G|---------------------------------------------------------------------------|
D|---------------------------------------------------------------------------|
A|---------------------------------------------------------------------------|
D|-5-555-6-6-1-110-11-11-1/12/1----------------------------------------------|

G|-------------------------------------------|    G|--------------7-------|
D|-------------------------------------------|    D|------0-8-7-5---55555-|
A|-----------0-111-0---0-1-3-----------------| x2 A|--0-1-----------------| x1
D|-555-0-111---------3-------5-5-6-6-000-22--|    D|-5--------------------|


G|-------------------------------------------------------------------------|
D|-------------------------------------------------------------------------|
A|-0-0-------0-00-------0-0-------0-00-------------------------------------|
D|-----4-2-4------4-2-4-----4-2-4------4-2-4-11-0-21-010-21-33333333-55555-|

G|----------------------------------------|
D|----------------------------------------|
A|-000-11111-----------000-1111-----------| x3
D|-----------3333-5555----------3333-5555-|

G|---------------------------------------------------------------------------|
D|---------------------------------------------------------------------------|
A|-12-12-12--13-13-13-13-13-8-8-8-8-10-10-10-10------------------------------|
D|---------------------------------------------------------------------------|

G|---------------------------------------------------------------------------------|
D|---------------------------------------------------------------------------------|
A|-0000------3333------0000-1111-----------0000-1111-----------0000------3333------|
D|------3333------5555-----------3333-5555-----------3333-5555------3333------5555-|


G|---------------------------------------------------------------------------------|
D|---------------------------------------------------------------------------------|
A|-0000-1111-----------0000-1111-----------0000------3333------0000-1111-----------|
D|-----------3333-5555-----------3333-5555------3333------5555-----------3333-5555-|

G|-------------------------|
D|-------------------------|
A|-0000------3333------0~--|
D|------3333------5555-----|

It's not perfect, but it's damn close to it. Any problems with it, just comment on here. 
don't have some of the breakaway parts he has, because I couldn't hear them clearly 
but this is pretty much it. If you played this for a crowd, they wouldn't know
any different, haha.

~Hobo11





Comments


Popular Bad Religion tabs & chords
Lookin In Bass Tabs
Street Kid Named Desire Bass Tabs
You Are You Are The Government Bass Tabs
Dont Sell Me Short 2 Chords
Social Suicide Chords
Cease 1 Tabs
Don't Pray On Me Tabs
Materialist 1 Tabs
Positive Aspect Tabs
There Will Be A Way 1 Tabs


Song lyrics



↑ Back to top | Tablatures and chords are parodies/interpretations of the original songs. You may use it for private study, scholarship, research or language learning purposes only
© 2014 AZChords.com Contact us | Privacy policy | DMCA | Add/correct tabs | Request tabs | Top 50 tabs