» » »

Bad Religion, Recipe For Hate Tabs (ver.1)

Artists:  A B C D E F G H I J K L M N O P Q R S T U V W X Y Z # 

Recipe For Hate Tabs (ver.1)

Bad Religion Tabs
 Rating:
4/5 (4 votes)
Recipe For Hate lessons Tabs too difficult? Try these video lessons and learn fast
1
                Opening
e|--------------------------------------------------------------------|
B|-3-3-3/5-5-5\3-3/5-5-5----------------------------------------------|
G|-2-2-2/4-4-4\2-2/4-5-4-4---4---77777--------------------------------|
D|-----------------------2---2---55555--------------------------------|
A|-------------------------------------22222--------------------------|
E|-------------------------------------00000--------------------------|
2nd part of opening and verses
e|--------------------------------------------------------------------|
B|--------------------------------------------------------------------|
G|-7-9-9-9-7-9-9-9-7-9-9-9---------7-9-9-9-7-9-9-9-7-9-9-9------------|
D|-7-9-9-9-7-9-9-9-7-9-9-9-5-------7-9-9-9-7-9-9-9-7-9-9-9-5-7--------|
A|-7-7-7-7-7-7-7-7-7-7-7-7-3-5-5---7-7-7-7-7-7-7-7-7-7-7-7-3-5--------|
E|---------------------------3-3--------------------------------------|
Chorus
e|--------------------------------------------------------------------|
B|--------------------------------------------------------------------|
G|-7-9-9-9-7-9-10-9-7-------------------------------------------------|
D|-7-9-9-9-7-9-10-9-7-------------------------------------------------|
A|-7-7-7-7-7-7--7-7-7-55555555-77777777-------------------------------|
E|--------------------33333333-55555555-------------------------------|
Ending
e|--------------------------------------------------------------------|
B|--------------------------------------------------------------------|
G|-7-9-9-9-7-9-9-9-7-9-9-9--------------------------------------------|
D|-7-9-9-9-7-9-9-9-7-9-9-9-5-7-5-7-5-7-55-----------------------------|
A|-7-7-7-7-7-7-7-7-7-7-7-7-3-5-3-5-3-5-33-55-2------------------------|
E|----------------------------------------33-0------------------------|
            
Submit corrections

comments powered by Disqus
↑ Back to top | Bad Religion Tabs for Recipe For Hate. Lyrics for acoustic guitar and electric guitar. 1 Tablatures and chords are parodies/interpretations of the original songs. You may use it for private study, scholarship, research or language learning purposes only