» » »

Bad Religion, 10 In 201 Bass tabs (ver.1)

Artists:  A B C D E F G H I J K L M N O P Q R S T U V W X Y Z # 

10 In 201 Bass tabs (ver.1)

Bad Religion Tabs
Rating:
0/5 (0 votes)
Hard to play? Try these video lessons and learn fast.
                Intro
G|------|
D|------|Hit the notes
A|-12\3-|in betweeen and
E|------|make it last long

Verse
G|-------------------------|
D|-------------------------|
A|-3/555-3-55555------3----|
E|---------------6-33---55-|

Chorus
G|------------------------|----------------------------|
D|------------------------|----------------------------|
A|----------8-55555-33333-|----------8-----------------|
E|-6666-5-6---------------|-6666-5-6----55555555555555-|

-verse
-chorus
-verse during the solo

End of solo
G|----------------|
D|----------------|
A|-1111---1-00000-|
E|------1---------|

-verse
-chorus
-verse

Ending
G|-----------|----|
D|-----------|----|
A|-----2/3---|-5~-|
E|-6-3-----5-|----|
            

comments powered by Disqus
↑ Back to top | Bad Religion Bass for 10 In 201. Lyrics for acoustic guitar and electric guitar. Tablatures and chords are parodies/interpretations of the original songs. You may use it for private study, scholarship, research or language learning purposes only