» » »

Bad Religion, 10 In 201 Tabs (ver.2)

Artists:  A B C D E F G H I J K L M N O P Q R S T U V W X Y Z # 

10 In 201 Tabs (ver.2)

Bad Religion Tabs
 Rating:
4.3/5 (6 votes)
10 In 201 lessons Tabs too difficult? Try these video lessons and learn fast
                This is one of my favourite punk rock songs, i have taken the liberty of tabbing it. i
also noticed that you can't really find many tabs of the solo to ten in 2010, so i gave
it my best shot. solos not perfect, but thats as close as it gets. if anyone can get any
closer to the real thing pls let me know!

standard tuning

note:

/    =    slide
h    =    hammer on
p    =    pull off
()   =    bend note

Intro riff x4

Guitar 1

e------------------------------------------------------------|
B------------------------------------------------------------|
G------------------------------------------------------------|
D-------5/7--7-7-7-7-7-7-7-7-7-7-7-7-7-7-7-------------------|
A-------3/5--5-5-5-5-5-5-5-5-5-5-5-5-5-5-5-------------------|
E------------------------------------------------------------|

Guitar 2

Pick scr*pe guitar during the 3rd and 4th repeat of intro riff.
scr*pe from bridge to head


Verse 1 riff x 4

guitar 1 and 2

e--------------------------------------------------------------|
B--------------------------------------------------------------|
G--------------------------------------------------------------|
D---5/7--7-7-7-7-7-7----5/7--7-7-7-7-7-7----3-------5----------|
A---3/5--5-5-5-5-5-5----3/5--5-5-5-5-5-5----1---5---3---7------|
E-----------------------------------------------3-------5------|


Chorus 1

guitar 1 and 2

e--------------------------------------|------------------------------------|
B--------------------------------------|------------------------------------|
G--------------------------------------|------------------------------------|
D---------------10--7-7-7--7--5-5-5-5--|-----------------5------------------|
A--8-8-8-8-7-7---8--5-5-5--5--3-3-3-3--|-8-8-8-8-3-3-3-3-3-7-7-7-7-7-7-7-7--|
E--6-6-6-6-5-5-------------------------|-6-6-6-6-1-1-1-1---5-5-5-5-5-5-5-5--|


Verse 2 riff x 4

guitar 1 and 2

e--------------------------------------------------------------|
B--------------------------------------------------------------|
G--------------------------------------------------------------|
D---5/7--7-7-7-7-7-7----5/7--7-7-7-7-7-7----3-------5----------|
A---3/5--5-5-5-5-5-5----3/5--5-5-5-5-5-5----1---5---3---7------|
E-----------------------------------------------3-------5------|


Chorus 2

guitar 1 and 2

e--------------------------------------|------------------------------------|
B--------------------------------------|------------------------------------|
G--------------------------------------|------------------------------------|
D---------------10--7-7-7--7--5-5-5-5--|-----------------5------------------|
A--8-8-8-8-7-7---8--5-5-5--5--3-3-3-3--|-8-8-8-8-3-3-3-3-3-7-7-7-7-7-7-7-7--|
E--6-6-6-6-5-5-------------------------|-6-6-6-6-1-1-1-1---5-5-5-5-5-5-5-5--|


break between chorus and solo

guitar 1

e-----------------------------------------------------------------|
B-----------------------------------------------------------------|
G-----------------------------------------------------------------|
D-----------------------------------------------------------------|
A---7-7-7-7-7-7-7-7-7-7-7-7-7-7-7-7-------------------------------|
E---5-5-5-5-5-5-5-5-5-5-5-5-5-5-5-5-------------------------------|

guitar 2

e-----------------------------------------------------------------|
B--13--15-15------------------------------------------------------|
G-----------------------------------------------------------------|
D-----------------------------------------------------------------|
A-----------------------------------------------------------------|
E-----------------------------------------------------------------|


Solo

During the solo, guitar 1 plays the verse riff. To make the solo easier to read and
play I tabbed it so that every two bars of solo is equal to a full verse riff

guitar 2

e---------------------13------------------------|
B--13-15-15---15---15-----15-15-15--15----------|
G-----------------------------------------------|
D-----------------------------------------------|
A-----------------------------------------------|
E-----------------------------------------------|


e-----------------------------------------------------|
B-----13-13----13-12----12--13h15--10h12--10h13/15----|
G--14-------14-------14-------------------------------|
D-----------------------------------------------------|
A-----------------------------------------------------|
E-----------------------------------------------------|
  Pick fast on this bar (listen to the song)


e--------------------------------------------------------------|
B------13-15----13h15p13-12h13p12------------------------------|
G---14-------14-------------------14--12h14p12-----------------|
D---------------------------------------------------14--12-----|
A--------------------------------------------------------------|
E--------------------------------------------------------------|
 This bit is hard to hear as it's mainly hammer ons and pull offs.
i think they use some effects too.

e-----------------------------------------------------------------|
B-----------------------------------------------------------------|
G-----------------------------------------------------------------|
D--10-12-10----10-------------------------------------------------|
A-----------12----12-10-12--10-12-10-8-10--8----------------------|
E-----------------------------------------------------------------|

e------------------------8-------------------------------|
B---------------6--9(10)---9(10)-------------------------|
G---5h7-7-7---7------------------------------------------|
D--------------------------------------------------------|
A--------------------------------------------------------|
E--------------------------------------------------------|
 Here, bend the 9 up a semitone (half step) to give the 10 sound

e-----------------13------------------------------------|
B--15-15----13-15----15-13-15-15------------------------|
G-------------------------------------------------------|
D-------------------------------------------------------|
A-------------------------------------------------------|
E-------------------------------------------------------|

e----17-15-----------------------------------------------|
B----------17-15-17-15-13----13-15-15--------------------|
G-------------------------14-----------------------------|
D--------------------------------------------------------|
A--------------------------------------------------------|
E--------------------------------------------------------|

e------------------------------------------------------|
B------------------------------------------------------|
G--12/14--12h14p12---10h12p10--9h10p9------------------|
D------------------------------------------------------|
A--------------------------------------12-12-----------|
E------------------------------------------------------|


End of solo part

guitar 2

e----------------------------------------------------------|
B--10------10------10------10------8-------10-------5------|
G--12(14)--12(14)--12(14)--12(14)--10(12)--12(14)---7(9)---|
D----------------------------------------------------------|
A----------------------------------------------------------|
E----------------------------------------------------------|
 when playing these 'chords' ensure that you bend the notes
to the desired notes in the brackets


Guitar 1

e--------------------------------------------------------|
B--------------------------------------------------------|
G--------------------------------------------------------|
D------------------5-5-----------------------------------|
A--8-8-8-8-3-3-3-3-3-3-7-7-7-7-7-7-7-7-------------------|
E--6-6-6-6-1-1-1-1-----5-5-5-5-5-5-5-5-------------------|


Verse 3 riff x 4

guitar 1 and 2

e--------------------------------------------------------------|
B--------------------------------------------------------------|
G--------------------------------------------------------------|
D---5/7--7-7-7-7-7-7----5/7--7-7-7-7-7-7----3-------5----------|
A---3/5--5-5-5-5-5-5----3/5--5-5-5-5-5-5----1---5---3---7------|
E-----------------------------------------------3-------5------|


Chorus 3

guitar 1 and 2

e--------------------------------------|------------------------------------|
B--------------------------------------|------------------------------------|
G--------------------------------------|------------------------------------|
D---------------10--7-7-7--7--5-5-5-5--|-----------------5------------------|
A--8-8-8-8-7-7---8--5-5-5--5--3-3-3-3--|-8-8-8-8-3-3-3-3-3-7-7-7-7-7-7-7-7--|
E--6-6-6-6-5-5-------------------------|-6-6-6-6-1-1-1-1---5-5-5-5-5-5-5-5--|


Ending verse/chorus thing

guitar 1 and 2

e--------------------------------------------------------------|
B--------------------------------------------------------------|
G--------------------------------------------------------------|
D---5/7--7-7-7-7-7-7----5/7--7-7-7-7-7-7----3-------5----------|
A---3/5--5-5-5-5-5-5----3/5--5-5-5-5-5-5----1---5---3---7------|
E-----------------------------------------------3-------5------|


e--------------------------------------------------------------|
B--------------------------------------------------------------|
G--------------------------------------------------------------|
D---5/7--7-7-7-7-7-7----5/7--7-7-7-7-7-7----3-------5----------|
A---3/5--5-5-5-5-5-5----3/5--5-5-5-5-5-5----1---5---3---7------|
E-----------------------------------------------3-------5------|


e-------------------------|
B-------------------------|
G-------------------------|
D-------3-------5---------|     x 3
A-------1---5---3---7-----|
E-----------3-------5-----|


e-------------------------|
B-------------------------|
G-------------------------|
D-------3-----------------|
A-------5-----------------|
E-------------------------|
            
Submit corrections

comments powered by Disqus
↑ Back to top | Bad Religion Tabs for 10 In 201. Lyrics for acoustic guitar and electric guitar. Tablatures and chords are parodies/interpretations of the original songs. You may use it for private study, scholarship, research or language learning purposes only