» » »

10 In 201 Tabs (ver.3)

Artists:  A B C D E F G H I J K L M N O P Q R S T U V W X Y Z # 

10 In 201 Tabs (ver.3)

Bad Religion
Rating:
0/5 (0 votes)

Hard to play? Try these video lessons and learn fast.
                
TEN IN 2010
As recorded by Bad Religion
(From the 1996 Album THE GRAY RACE)

        

Words by Greg Graffin Music by Bad Religion
Arranged by Bad Religion

Gtr I (E A D G B E) - 'Untitled'
Gtr II (E A D G B E) - 'Untitled'
Gtr III (E A D G B E) - 'Untitled'

 Intro
  Q=198
  C5D5                                C5D5
 4/4
  Gtr I
  E E E E E E E E   E E E E E E E E   E E E E E E E E   E E E E E E E E
|-----------------|-----------------|-----------------|-----------------|
|-----------------|-----------------|-----------------|-----------------|
|-5-7-7-7-7-7-7-7-|-7-7-7-7-7-7-7-7-|-5-7-7-7-7-7-7-7-|-7-7-7-7-7-7-7-7-|
|-5-7-7-7-7-7-7-7-|-7-7-7-7-7-7-7-7-|-5-7-7-7-7-7-7-7-|-7-7-7-7-7-7-7-7-|
|-3-5-5-5-5-5-5-5-|-5-5-5-5-5-5-5-5-|-3-5-5-5-5-5-5-5-|-5-5-5-5-5-5-5-5-|
|-----------------|-----------------|-----------------|-----------------|


  C5 D5                                  C5 D5
  E  E E E E E E E    E  E E E E E E E   E  E E E E E E E    E  E E E E E E E
|------------------|-------------------|------------------|-------------------|
|------------------|-------------------|------------------|-------------------|
|-5--7-7-7-7-7-7-7-|--7--7-7-7-7-7-7-7-|-5--7-7-7-7-7-7-7-|--7--7-7-7-7-7-7-7-|
|-5--7-7-7-7-7-7-7-|--7--7-7-7-7-7-7-7-|-5--7-7-7-7-7-7-7-|--7--7-7-7-7-7-7-7-|
|-3--5-5-5-5-5-5-5-|--5--5-5-5-5-5-5-5-|-3--5-5-5-5-5-5-5-|--5--5-5-5-5-5-5-5-|
|------------------|-------------------|------------------|-------------------|
|
| Gtr III
| \7                                     \7
| TP                  TP                 TP                  TP
| W                  +W                  W                  +W
|------------------|-------------------|------------------|-------------------|
|------------------|-------------------|------------------|-------------------|
|------------------|-------------------|------------------|-------------------|
|-x----------------|-(x)---------------|-x----------------|-(x)---------------|
|-x----------------|-(x)---------------|-x----------------|-(x)---------------|
|-x----------------|-(x)---------------|-x----------------|-(x)---------------|


   Verse
    $
    $$
    C5D5          C5      D5              Bb5  G5     C5       A
    E E E E E E E E   +E  E E E E E E E   Q  E E Q  E E   Q  E E Q  E E   4x
||------------------|-------------------|---------------|-----------------||
||o-----------------|-------------------|---------------|----------------o||
||--5-7-7-7-7-7-7-5-|-(5)-7-7-7-7-7-7-7-|-------------5-|-5--x-6-6--x-6---||
||--5-7-7-7-7-7-7-5-|-(5)-7-7-7-7-7-7-7-|-8--x-5-5--x-5-|-5--x-7-7--x-7---||
||o-3-5-5-5-5-5-5-3-|-(3)-5-5-5-5-5-5-5-|-8--x-5-5--x-3-|-3--x-7-7--x-7--o||
||------------------|-------------------|-6--x-3-3--x---|------5-5--x-5---||


 Chorus
  Bb5              A5     F5          D5          C5
  Q  E E E E E E   Q  E E  Q   E  E   Q  Q  E E E E   +E  E E E E E E E
|----------------|------------------|---------------|-------------------|
|----------------|------------------|---------------|-------------------|
|----------------|--------10--10-10-|-7--7--7-7-7-5-|-(5)-5-5-5-5-5-5-5-|
|-8--8-8-8-8-8-8-|-7--7-7-10--10-10-|-7--7--7-7-7-5-|-(5)-5-5-5-5-5-5-5-|
|-8--8-8-8-8-8-8-|-7--7-7--8---8--8-|-5--5--5-5-5-3-|-(3)-3-3-3-3-3-3-3-|
|-6--6-6-6-6-6-6-|-5--5-5-----------|---------------|-------------------|


  Bb5              F5        C5
  Q  E E E E E E    Q   E  E  Q   E  E
|----------------|---------------------|
|----------------|---------------------|
|----------------|-10--10-10-----------|
|-8--8-8-8-8-8-8-|-10--10-10-10--10-10-|
|-8--8-8-8-8-8-8-|--8---8--8-10--10-10-|
|-6--6-6-6-6-6-6-|------------8---8--8-|


         To Coda   D.S. al Coda     &
                   D.S. al Coda
  A5
  E E E E E E E E   E E E E q  q    E E E E E E E E
|-----------------|---------------|-----------------|
|-----------------|---------------|-----------------|
|-----------------|---------------|-----------------|
|-7-7-7-7-7-7-7-7-|-7-7-7-7-7--7--|-7-7-7-7-7-7-7-7-|
|-7-7-7-7-7-7-7-7-|-7-7-7-7-7--7--|-7-7-7-7-7-7-7-7-|
|-5-5-5-5-5-5-5-5-|-5-5-5-5-5--5--|-5-5-5-5-5-5-5-5-|


  E  E   E  E   E   E E E   E E E E q    q
|-------------------------|---------------------||
|-------------------------|---------------------||
|-------------------------|---------------------||
|-7--7---7--7---7---7-7-7-|-7-7-7-7-7----7------||
|-7--7---7--7---7---7-7-7-|-7-7-7-7-7----7------||
|-5--5---5--5---5---5-5-5-|-5-5-5-5-5----5------||
|
| Gtr II
| E  E  +Q     +Q     E E   E E E E E E  E   E
|-8h10-(10)---(10)\-------|-------------<7>-<7>-||
|-------------------------|---------------------||
|-------------------------|---------------------||
|-------------------------|---------------------||
|-----------------------x-|-x-x-x-x-x-----------||
|-----------------------x-|-x-x-x-x-x-x---------||


 Guitar Solo
  C5 D5                       C5        D5
   E  E  E  E  E        E   E  E    +E   E  E  E  E E  E E
|--------------------------------|-------------------------|
|--------------------------------|-------------------------|
|--5--7--7--7--7--------7---7--5-|--(5)--7--7--7--7-7--7-7-|
|--5--7--7--7--7--------7---7--5-|--(5)--7--7--7--7-7--7-7-|
|--3--5--5--5--5--------5---5--3-|--(3)--5--5--5--5-5--5-5-|
|--------------------------------|-------------------------|
|
|              ~~~~~~~                            ~~~~~~~
|  E  E  E  E  E       +E   E  E    +E   E  E  E  Q    Q
|-----------------------------13-|-(13)--------------------|
|-13-15-15-15-15b15.5-(15)-15----|------15-15-15-15---15---|
|--------------------------------|-------------------------|
|--------------------------------|-------------------------|
|--------------------------------|-------------------------|
|--------------------------------|-------------------------|


  Bb5      G5        C5            A
   Q     E E  Q    E  E    Q     E  E  Q     E  E
|-----------------------|-------------------------|
|-----------------------|-------------------------|
|---------------------5-|--5-----x--6--6-----x--6-|
|--8-----x-5--5----x--5-|--5-----x--7--7-----x--7-|
|--8-----x-5--5----x--3-|--3-----x--7--7-----x--7-|
|--6-----x-3--3----x----|-----------5--5-----x--5-|
|
|  E  E  E E  E E  E  E    E  E  E  E  E  E  Q
|-----------------------|----10-------------------|
|-10-12-10-0-13-0-10-13-|-10----10-------13-15\---|
|-----------------------|----------12-14----------|
|-----------------------|-------------------------|
|-----------------------|-------------------------|
|-----------------------|-------------------------|


  C5 D5                             C5             D5
   E  E  E  E     E     E     E      E      +E      E     E     E     E E  E E
|-----------------------------------------|------------------------------------|
|-----------------------------------------|------------------------------------|
|--5--7--7--7-----7-----7-----7------5----|-(5)-----7-----7-----7-----7-7--7-7-|
|--5--7--7--7-----7-----7-----7------5----|-(5)-----7-----7-----7-----7-7--7-7-|
|--3--5--5--5-----5-----5-----5------3----|-(3)-----5-----5-----5-----5-5--5-5-|
|-----------------------------------------|------------------------------------|
|
|  E  E  E  S  S  S  S  S  S  S   S  S  S    S   S  S  S  S  S  S  S  Q    Q
|-----------------------------------------|------------------------------------|
|----13-15----13h15p13p12-13p12-----------|------------------------------------|
|-14-------14-------------------h14-12h14-|-12-----10h12p10--------------------|
|-----------------------------------------|-----14----------14p12h14-12---12---|
|-----------------------------------------|------------------------------------|
|-----------------------------------------|------------------------------------|


  Bb5       G5          C5          A
   Q      E  E  Q     E  E   Q    E E Q  E E
|--------------------------|-----------------|
|--------------------------|-----------------|
|------------------------5-|-5----x-6-6--x-6-|
|--8------x--5--5-----x--5-|-5----x-7-7--x-7-|
|--8------x--5--5-----x--3-|-3----x-7-7--x-7-|
|--6------x--3--3-----x----|--------5-5--x-5-|
|
|                                     ~
|  E  E   E  E  E  E  E  E   E  E E E Q  Q
|--------------------------|-----------------|
|--------------------------|-----------------|
|--------------------------|-----------------|
|-12--10----10----------|-----------------|
|-----------12----10-12-10-|-8-10-8-7-8--7---|
|--------------------------|-----------------|


  C5  D5                C5      D5
  E   E   E   E   E E E E   +E  E E E E    E E     E
|-------------------------|------------------------------|
|-------------------------|------------------------------|
|-5---7---7---7---7-7-7-5-|-(5)-7-7-7-7----7-7-----7-----|
|-5---7---7---7---7-7-7-5-|-(5)-7-7-7-7----7-7-----7-----|
|-3---5---5---5---5-5-5-3-|-(3)-5-5-5-5----5-5-----5-----|
|-------------------------|------------------------------|
|
| S S S S S S S S Q   E E   +E  E E E E    E E    +S  S
|-------------------------|----------------8-------------|
|-----------------------6-|-(6)-----8-8b10---8b10-(8)-6--|
|-----------4-5---7---7---|-----7-7----------------------|
|-------5-7-----7---------|------------------------------|
|-5-7-8-------------------|------------------------------|
|-------------------------|------------------------------|


  Bb5           G5             C5                  A
   Q      E     E   Q        E  E       Q        E  E       Q    E   E
|------------------------------------|---------------------------------|
|------------------------------------|---------------------------------|
|-------------------------------5----|--5--------x--6-------6----x---6-|
|--8------x-----5---5--------x--5----|--5--------x--7-------7----x---7-|
|--8------x-----5---5--------x--3----|--3--------x--7-------7----x---7-|
|--6------x-----3---3--------x-------|--------------5-------5----x---5-|
|
|                                                   ~~~~~~~~~~~~~~~~
|                                       |--3--|
|  Q      Q        +Q     a  E  E       E  E  E  E  E      +Q    E   E
|------------------------------------|-13---------------------------17-|
|-13b15--13b15====(13)r--12-13-13b15-|----15-13-15-13b15==(13)--13r----|
|------------------------------------|---------------------------------|
|------------------------------------|---------------------------------|
|------------------------------------|---------------------------------|
|------------------------------------|---------------------------------|


  C5 D5                        C5       D5
   E  E  E  E  E  E     E       E   +E   E  E  E  E  E E E
|---------------------------------|-------------------------|
|---------------------------------|-------------------------|
|--5--7--7--7--7--7-----7-------5-|-(5)--7--7--7--7--7-7-7--|
|--5--7--7--7--7--7-----7-------5-|-(5)--7--7--7--7--7-7-7--|
|--3--5--5--5--5--5-----5-------3-|-(3)--5--5--5--5--5-5-5--|
|---------------------------------|-------------------------|
|
|  E  E  E  E  E  E  a  E       E    E   E  E  E  Q.     E
|-15-13-------13------------------|-------------------------|
|-------15-13----15-13-13b14.5-13-|-----13----13-15------x--|
|---------------------------------|--x-----14---------------|
|---------------------------------|-------------------------|
|---------------------------------|-------------------------|
|---------------------------------|-------------------------|


  Bb5           G5             C5
   Q          E  E  Q     E     E
|------------------------------------|
|------------------------------------|
|-------------------------------5----|
|--8----------x--5--5-----x-----5----|
|--8----------x--5--5-----x-----3----|
|--6----------x--3--3-----x----------|
|
|  E  E       E  E  E  E  S  S  S  S
|------------------------------------|
|-13---------------------------------|
|----14b14.5-14-12-14-12-10-12-10-12-|
|------------------------------------|
|------------------------------------|
|------------------------------------|


              A                Bb5
   Q     E     E  Q      E E    Q      E     E   E   E E E
|----------------------------|-----------------------------|
|----------------------------|-----------------------------|
|--5-----x-----6--6------x-6-|-----------------------------|
|--5-----x-----7--7------x-7-|--8------8-----8---8---8-8-8-|
|--3-----x-----7--7------x-7-|--8------8-----8---8---8-8-8-|
|--------------5--5------x-5-|--6------6-----6---6---6-6-6-|
|
|                                                ~~~~~
|  E  E  S  S  E  Q   a  Q      Q      Q        +H
|----------------------------|-----------------------------|
|----------------------------|-10-----10-------(10)--------|
|-10-------------------------|-12b14--12b14====(12)r-------|
|----12-10-12----------------|-----------------------------|
|-------------10-12--10-12---|-----------------------------|
|----------------------------|-----------------------------|


                                                 D.S.S. al Dbl. Coda
  F5           C5                A5
   Q      E  E  Q      E     E   E    E E E E E E E    E   E E E q  q
|------------------------------|--------------------|------------------|
|------------------------------|--------------------|------------------|
|-10-----10-10-----------------|--------------------|------------------|
|-10-----10-10-10-----10----10-|-7----7-7-7-7-7-7-7-|--7---7-7-7-7--7--|
|--8------8--8-10-----10----10-|-7----7-7-7-7-7-7-7-|--7---7-7-7-7--7--|
|---------------8------8-----8-|-5----5-5-5-5-5-5-5-|--5---5-5-5-5--5--|
|
|                                ~~~~~~~~~~~~~~~~~~~~~~~~~~
|  H            Q      E     E   W                    +W
|------------------------------|--------------------|------------------|
|--8-----------10-----10-------|-5------------------|-(5)--------------|
|-10b12--------12b14--12b14--7-|-7b9================|=(7)r-------------|
|------------------------------|--------------------|------------------|
|------------------------------|--------------------|------------------|
|------------------------------|--------------------|------------------|


   Verse
    &&
    C5D5          C5      D5              Bb5  G5     C5       A
    E E E E E E E E   +E  E E E E E E E   Q  E E Q  E E   Q  E E Q  E E
||------------------|-------------------|---------------|-----------------||
||o-----------------|-------------------|---------------|----------------o||
||--5-7-7-7-7-7-7-5-|-(5)-7-7-7-7-7-7-7-|-------------5-|-5--x-6-6--x-6---||
||--5-7-7-7-7-7-7-5-|-(5)-7-7-7-7-7-7-7-|-8--x-5-5--x-5-|-5--x-7-7--x-7---||
||o-3-5-5-5-5-5-5-3-|-(3)-5-5-5-5-5-5-5-|-8--x-5-5--x-3-|-3--x-7-7--x-7--o||
||------------------|-------------------|-6--x-3-3--x---|------5-5--x-5---||


   Outro
    Bb5    G5       C5     A          D5
    Q  E E Q  E E   Q  E E Q  E E  3x W          +W
||----------------|----------------||----------|--------*|
||o---------------|---------------o||----------|--------*|
||----------------|-5--5-5-6--6-6--||-7--------|-(7)----*|
||--8--8-8-5--5-5-|-5--5-5-7--7-7--||-7--------|-(7)----*|
||o-8--8-8-5--5-5-|-3--3-3-7--7-7-o||-5--------|-(5)----*|
||--6--6-6-3--3-3-|--------5--5-5--||----------|--------*|



Duration Legend
---------------
W - whole; H - half; Q - quarter; E - 8th; S - 16th; T - 32nd; X - 64th; a - acciaccatura
+ - note tied to previous; . - note dotted; .. - note double dotted
Uncapitalized letters represent notes that are staccato (1/2 duration)
Irregular groupings are notated above the duration line
Duration letters will always appear directly above the note/fret number it represents the
duration for.  Duration letters with no fret number below them represent rests.  Multi-
bar rests are notated in the form Wxn, where n is the number of bars to rest for.  Low
melody durations appear below the staff

Tablature Legend
----------------
 h   - hammer-on
 p   - pull-off
 b   - bend
 pb  - pre-bend
 r   - bend release (if no number after the r, then release immediately)
 /\  - slide into or out of (from/to "nowhere")
 s   - legato slide
 S   - shift slide
 - natural harmonic
[n]  - artificial harmonic
n(n) - tapped harmonic
 ~   - vibrato
 tr  - trill
 T   - tap
 TP  - trem. picking
 PM  - palm muting
\n/  - tremolo bar dip; n = amount to dip
 \n  - tremolo bar down
 n/  - tremolo bar up
/n\  - tremolo bar inverted dip
 =   - hold bend; also acts as connecting device for hammers/pulls
 <> - volume swell (louder/softer)
 x   - on rhythm slash represents muted slash
 o   - on rhythm slash represents single note slash

Misc Legend
-----------
 |  - bar
||  - double bar
||o - repeat start
o|| - repeat end
*|  - double bar (ending)
 :  - bar (freetime)
 $  - Segno
 &  - Coda
Tempo markers -  = BPM(8/16=s8/s16), where s8 = swing 8ths, s16 = swing 16ths
            
Hard to play? Try these video lessons and learn fast. | Correct




comments powered by Disqus
↑ Back to top | Tablatures and chords are parodies/interpretations of the original songs. You may use it for private study, scholarship, research or language learning purposes only