» » »

Right Brigade Bass tabs (ver.3)

Artists:  A B C D E F G H I J K L M N O P Q R S T U V W X Y Z # 

Right Brigade Bass tabs (ver.3)

Bad Brains
Rating:
2/5 (1 vote)

Hard to play? Try these video lessons and learn fast.
                E----------------------3-3-3-3-3-3-3-3---|  2x
A---3-3-3-3--6-6-6-6---------------------|
B----------------------------------------|
D----------------------------------------|

E------22--------------| 2x
A--33------22--2-2-2-2-|
B----------------------|
D----------------------|

E--------------22222222---------------------| 2x
A--33333333-------------22222222-2-2-2-2-2--|
B-------------------------------------------|
D-------------------------------------------|

E----------------------------------------| 2X
A--7777---3-2---22222222-----------------|
B----------------------------------------|
D----------------------------------------|

E------22---------------| 2x
A--33------2-2--2-2-2-2-|
B-----------------------|
D-----------------------|

E--------------22222222---------------------| 2x
A--33333333-------------22222222-2-2-2-2-2--|
B-------------------------------------------|
D-------------------------------------------|

E----------------------------------------| 2X
A--7777---3-2---22222222-----------------|
B----------------------------------------|
D----------------------------------------|

E--2-2-2-2-2-2---333/222/333/2/3---------|
A----------------------------------------|
B----------------------------------------|
D----------------------------------------|
            
Hard to play? Try these video lessons and learn fast. | Correct




comments powered by Disqus
↑ Back to top | Tablatures and chords are parodies/interpretations of the original songs. You may use it for private study, scholarship, research or language learning purposes only