» » »

Bad Brains, Banned In Dc Tabs (ver.1)

Artists:  A B C D E F G H I J K L M N O P Q R S T U V W X Y Z # 

Banned In Dc Tabs (ver.1)

Bad Brains Tabs
Rating:
0/5 (0 votes)
Banned In Dc lessons Tabs too difficult? Try these video lessons and learn fast
                             Intro:
E||---------------------------------|
B||---------------------------------|
G||--9-----9-----9-9-9-9-----9~-----|
D||--9-----9-----9-9-9-9-----9~-----|
A||--7-----7-----7-7-7-7-----7~-----|
E||---------------------------------|
                   
                              Verse:                   
|--------------------------------|------------------------------------||
|--------------------------------|------------------------------------||
|-----------------------6--7--6--|--9-9-9-9-9-9/8-9-9-9-9-9-9-9-9-9---||
|---9-9-9-9-9-9-9-9-9-9-6--7--6--|--9-9-9-9-9-9/8-9-9-9-9-9-9-9-9-9---|| 4x
|---9-9-9-9-9-9-9-9-9-9-4--5--4--|--7-7-7-7-7-7/6-7-7-7-7-7-7-7-7-7---||
|---7-7-7-7-7-7-7-7-7-7----------|------------------------------------||

                 Chorus:
----------------------------------------------||
----------------------------------------------||
---/12--7--9--9-9-9-9-9/8-9-9-9-9-9-9-9-9-9---||
---/12--7--9--9-9-9-9-9/8-9-9-9-9-9-9-9-9-9---|| x2
---/10--5--7--7-7-7-7-7/6-7-7-7-7-7-7-7-7-7---||
----------------------------------------------||


-------------------------------------|
-------------------------------------|
---9-9-9-9-9-9/8-9-9-9-9-9-9-9-9-9---|
---9-9-9-9-9-9/8-9-9-9-9-9-9-9-9-9---| x2
---7-7-7-7-7-7/6-7-7-7-7-7-7-7-7-7---|
-------------------------------------|

                           Verse 2:
|-----------------------------|------------------------------------||
|-----------------------------|------------------------------------||
|---9-9-9-9-9-9-9-9-9-9-6--7--|--9-9-9-9-9-9/8-9-9-9-9-9-9-9-9-9---||
|---9-9-9-9-9-9-9-9-9-9-4--5--|--7-7-7-7-7-7/6-7-7-7-7-7-7-7-7-7---|| 4x
|---7-7-7-7-7-7-7-7-7-7-------|------------------------------------||
|-----------------------------|------------------------------------||
   
                   Chorus:
-------------------------------------------|
-------------------------------------------|
-------------------------------------------|
---/16----15--13--11-11-11-11-10-11-11-11--| x2
---/14----13--11---9--9--9--9--8--9--9--9--|
-------------------------------------------|
                     
            Bridge:
  guitar 1 plays this for a while                             
|------------------------------|
|------------------------------|
|------------------------------|
|--10--10--10----10--10--10----|
|--10--10--10----10--10--10----|
|---8---8---8--8--8---8---8----|
    .   .      .  .   . 
    
-------------------------|------------------------|------------------------|
-------------------------|------------------------|------------------------|
--------------9--9--9----|------------------------|------------------------|
--9--9--9-----9--9--9----|--7--7--7-----7--7--7---|--7--7--7-------7---7--|
--9--9--9-----7--7--7----|--7--7--7-----7--7--7---|--7--7--7-------7---7--|
--7--7--7--7-------------|--5--5--5--5--5--5--5---|--5--5--5---5---5---5--|
  .  .     .  .  .          .  .     .  .  .         .  .      .

and guitar 2 plays this           
------------------------------|
------------------------------|
------------------------------|
------------------------------|
--7--7--9--9--10--10--9--9----|
------------------------------|

                   First part of solo:                    
----------------------------|----------------------------|
----------------------------|----------------------------|
--16----17----19----21--19--|--17--16--16--17p16p14------|
----------------------------|----------------------------|
----------------------------|----------------------------|
----------------------------|----------------------------|
            
Submit corrections

comments powered by Disqus
↑ Back to top | Bad Brains Tabs for Banned In Dc. Lyrics for acoustic guitar and electric guitar. Tablatures and chords are parodies/interpretations of the original songs. You may use it for private study, scholarship, research or language learning purposes only