» » »

Bad Brains, Right Brigade Tabs (ver.1)

Artists:  A B C D E F G H I J K L M N O P Q R S T U V W X Y Z # 

Right Brigade Tabs (ver.1)

Bad Brains Tabs
 Rating:
3.6/5 (7 votes)
Right Brigade lessons Tabs too difficult? Try these video lessons and learn fast
1
                

Intro:

    C5              D#5                G5
-|----------------------------------|-----------------------------------|
-|----------------------------------|-----------------------------------|
-|--5--5-5--5--5-5--8--8-8--8--8-8--|-----------------------------------|
-|--5--5-5--5--5-5--8--8-8--8--8-8--|--5--5-5--5--5-5--5--5-5--5--5-5---|
-|--3--3-3--3--3-3--6--6-6--6--6-6--|--5--5-5--5--5-5--5--5-5--5--5-5---|
-|----------------------------------|--3--3-3--3--3-3--3--3-3--3--3-3---|

Verse:  You can´t disappear anymore...

    C5            F#5            B5
-|----------------------------|-----------------------------|
-|----------------------------|-----------------------------|
-|--5--5-5--5-5---------------|--4--4-4--4-4--4--4-4--4-4---|
-|--5--5-5--5-5--4--4-4--4-4--|--4--4-4--4-4--4--4-4--4-4---|
-|--3--3-3--3-3--4--4-4--4-4--|--2--2-2--2-2--2--2-2--2-2---|
-|---------------2--2-2--2-2--|-----------------------------|

Chorus:  But the funny thing about you is...

    E5              C5   B5    B5
-|--------------------------|----------------------------|
-|--------------------------|----------------------------|
-|--9--9-9--9-9--9--5-5--4--|--4--4-4-4-4--4--4-4--4-4---|
-|--9--9-9--9-9--9--5-5--4--|--4--4-4-4-4--4--4-4--4-4---|
-|--7--7-7--7-7--7--3-3--2--|--2--2-2-2-2--2--2-2--2-2---|
-|--------------------------|----------------------------|

Outro:

    F#5             G#5     A5          G#5     A5      G#5 A5  F#5
|-----------------------------------|----------------------------------------|
|-----------------------------------|----------------------------------------|
|-----------------------------------|----------------------------------------|
|--4-4-4-4-4-4-4-4-6-6-6-6-7-7-7-7--|--6-6-6-6-7-7-7-7-6-6-7-7-4-4-4-4-4-4-4-|
|--4-4-4-4-4-4-4-4-6-6-6-6-7-7-7-7--|--6-6-6-6-7-7-7-7-6-6-7-7-4-4-4-4-4-4-4-|
|--2-2-2-2-2-2-2-2-4-4-4-4-5-5-5-5--|--4-4-4-4-5-5-5-5-4-4-5-5-2-2-2-2-2-2-2-|
            
Submit corrections

comments powered by Disqus
↑ Back to top | Bad Brains Tabs for Right Brigade. Lyrics for acoustic guitar and electric guitar. 1 Tablatures and chords are parodies/interpretations of the original songs. You may use it for private study, scholarship, research or language learning purposes only