» » »

Right Brigade Bass tabs (ver.2)

Artists:  A B C D E F G H I J K L M N O P Q R S T U V W X Y Z # 

Right Brigade Bass tabs (ver.2)

Bad Brains
Rating:
5/5 (1 vote)

Hard to play? Try these video lessons and learn fast.
                Standard Tuning
G------------------------------|
D----------2-2-2222------------|
A-4-4-4444---------------------|
E-------------------4-4-4444---|X2

G-----------------------|
D-----------------------|
A-4-4-4-------3-3-3-----|
E-------3-3-3-----------|X4  Palm mute on 2nd time and speed up

G-------------------|
D-3-3-3-3-----------|
A---------4-3-------|
E-------------------|X2

Ending during guitar solo
G--------------------------------------|
D--------------------------------------|
A--------000-111-000-111 0-------------|
E-333333-------------------1-33333-----|

BDUB!!!!!
            
Hard to play? Try these video lessons and learn fast. | Correct




comments powered by Disqus
↑ Back to top | Tablatures and chords are parodies/interpretations of the original songs. You may use it for private study, scholarship, research or language learning purposes only