>
 >
Carry On Up The Morning 2

Carry On Up The Morning 2 Guitar Tabs

Babyshambles - Carry On Up The Morning 2 chords, tabs, tablatures, lyrics

Guitar lessons | Add/correct | Request | Top 50 tabs Artists:  A B C D E F G H I J K L M N O P Q R S T U V W X Y Z 0-9

Carry On Up The Morning 2 Guitar Tabs – Babyshambles

CD, Sheet music, Poster

Do you like Carry On Up The Morning 2? Share with your friends now
TabsTabs v2Tabs v3Tabs v4
this is my first tab, i think its fairly accurate :)
enjoy
.................................
unknown chords

   E?              F#?
e--7---------------9---------|
b--8--------------10---------|
G--X---------------X---------|
D--9--------------11---------|
A--7---------------9---------|
E----------------------------|

----------------------------------------------------------

BABYSHAMBLES---CARRY ON UP THE MORNING

INTRO RIFF:

   Bm        G?       E?
e---------------------7--9-x9-x7-|
b----77---------8-----8--10x10x9-|
G----77-7hp9---------------------|
D----99-7----9--9-----9----------|
A----99------10-10--7-7----------|
E--7-----------------------------|


C D E (hammer on Gstring 2nd fret between chords to add lib)
C D E
C D E F#

Bm G E? F#?
Bm G E F#


C       D		      E
in the morning where does the pain go
	        F#
same place the fame goes
        Bm
to your head
            G    E
and its not easy
F#              Bm
gettin it out your head
           G  E    F#          C
and its too easy getin out your head

C       D		      E
Tell me now could not explain no
F#               Bm
put it in a song instead
            G   E
but its not easy
F#            Bm
gettin out of bed
            G        E        f#     B
and its not esaaaaaaaaaaay and so i said no

B	            G
you used to be into me
G                        B introriff
now you've got it on for me

straight into intro riff:

   Bm        G?       E? f#f# e          Bm       E  A
e---------------------7--9-x9-x7----2---------------------|
b----77---------8-----8--10x10x9-----3---7-7-6-5-----22---|
G----77-7hp9--------------------------4-----------11-22---|
D----99-7----9--9-----9---------------------------22-22---|
A----99------10-10--7-7---------------------------22-00---|
E--7----------------------------------------------00------|

C          D		              E
now in the morning where does all the pain go
	        F#
same place the fame goes sraight
        Bm
to your head
            G    E
and its not easy
F#              Bm
gettin it out your head
            G  E   F#                 C
and its not easy gettin them out your bed oh

C       D		      E
in the morning where does the pain go
	        F#
same place the fame goes
                 Bm
straight to your head

          G      E
it wasn't easy
         F#                     Bm
dont you think about what they said
    G              E
the way they tease me
        F#		     B
those 2 notes about what you said
B			         G
they said, "u two were ment to be"
		       B(intro riff)
and so it was ment to beeee

   Bm        G?       E?      F#?
e---------------------77777ss9-9-9-9-9-9----------|
b----77---------8-----88888ss101010101010---------|
G----77-7hp9--------------------------------------|
D----99-7----9--9-----9------11-------------------|
A----99------10-10--7-7------9--------------------|
E--7----------------------------------------------|

break down:
C D    E F#


  Bm          E       G     D
e-22000-2-210----0---333332-----------------------|
b-33333-3--------0----------3---------------------|
G-44444-4-----1--1----------2---------------------|
D-------------2-----------------------------------|
A-------------2-----------------------------------|
E-------------0-----------------------------------|


		         e-0--
Dsus                     b-2--	     G
And I know where to find you my love
G
In the same old flat by the river
G                                    Bm
The only way in was through the window

Bm E A


then intro riff:

   Bm        G?       E?
e---------------------7--9-x9-x7-|
b----77---------8-----8--10x10x9-|
G----77-7hp9---------------------|
D----99-7----9--9-----9----------|
A----99------10-10--7-7----------|
E--7-----------------------------|

Bm          G  E
No it's not easy,
F#             Bm
getting outta bed
            G  E
'N it's not easy,
F#                  Bm
getting it out your head
            G  E
No it's not easy,
F#            Bm
getting outta bed
            G  E
Oh it's too easy,
F#               Bm
getting out your head





Comments


Popular Babyshambles tabs & chords
Delivery 1 Bass Tabs
I Love You But Youre Green Bass Tabs
Unstookie Titled Bass Tabs
Albion Chords
French Dog Blues Chords
8 Dead Boys 1 Tabs
Beg Steal Or Borrow Tabs
Dirty Fame Ukulele
Hired Gun Ukulele
Karma Chameleon Ukulele


Song lyrics



↑ Back to top | Tablatures and chords are parodies/interpretations of the original songs. You may use it for private study, scholarship, research or language learning purposes only
© 2014 AZChords.com Contact us | Privacy policy | DMCA | Add/correct tabs | Request tabs | Top 50 tabs