>
 >
Carry On Up The Morning 1

Carry On Up The Morning 1 Guitar Tabs

Babyshambles - Carry On Up The Morning 1 chords, tabs, tablatures, lyrics

Guitar lessons | Add/correct | Request | Top 50 tabs Artists:  A B C D E F G H I J K L M N O P Q R S T U V W X Y Z 0-9

Carry On Up The Morning 1 Guitar Tabs – Babyshambles

CD, Sheet music, Poster

Do you like Carry On Up The Morning 1? Share with your friends now
TabsTabs v2Tabs v3Tabs v4
-------------------------------------------------------------------------------
                             SONG NAME - Band Name
-------------------------------------------------------------------------------

Tuning: Standard

This is how I play it, I don't think it's perfect, but it's certainly close enough.

Guitar 1 plays lead parts (tabbed)
Guitar 2 strums chords unless otherwise stated.

Intro:

e|----------------------------------------7---------------------------------------|
B|--7--7--7--7--7-----7-----------------8---7h8-8-10-x-x-10-8-7---7---------------|
G|--9b-9b-9b-9br7-----7-----------10--------7---------------------7---9b-9b-9b-9b-|
D|------------------9-9------------9----------------------------9---9-------------|
A|------------------9---9-9-10-10-10--7-------------------------------------------|
E|----------------7---------------------------------------------------------------|

                     Bm      G       Em        A7              Bm
e|------------------------------------7--------------------------------------|
B|--10p7-10p7-10p7-8-7---7------------7h8-7-8-/-10-10-10-10--8-7---7---------|
G|-----------------------7---------10-7----------------------------7---------|
D|---------------------9---9--------9----------------------------9---9-------|
A|---------------------------10-10-10----------------------------------------|
E|---------------------------------------------------------------------------|

    G     Em     A7          C    D    Em   F#
e|--------------------------------0~--------2~-----|
B|---------------7h8p7-10-8-1~---2~---0~---2~-----|
G|--9b-9b-9b-9b--x-----------0~---3~---0~---3~-----|
D|---------------------------2~---0~---2~---4~-----|
A|---------------------------3~--------2~---4~-----|
E|-------------------------------------0~---2~-----|

Verse:

    Bm   G    Em   A7   Bm   G   Em   A7   C          D        Em      F#
e|-------3----0----0---------3----0----0---------------------0-----0--------2----|
B|--3----3----0----2----3----3----0----2----------1--------3-------0--------2----|
G|--4----0----0----0----4----0----0----0--------0--------2---------0--------3----|
D|--4----0----2----2----4----0----2----2------2--------0-----------2--------4----|
A|--2----2----2----0----2----2----2----0----3----------------------2--------4----|
E|-------3----0--------------3----0----------------------------0-0------2-2------|

    Bm   G   Em   A7   Bm    G    Em   A7
e|-------3----0--------------3----0-----------------|
B|--3----3----0----0----3----3----0-----------------|
G|--4----0----0----2b---4----0----0----2-3----------|
D|--4----0----2---------4----0----2-----------------|
A|--2----2----2---------2----2----2-----------------|
E|-------3----0--------------3----0-----------------|

Chorus:

    B5                          A5  G5                   F#5    E5
e|---------------------------------------------------------------------|
B|---------------------------------------------------------------------|
G|--4-4-4-4-4-4-4-4-4-4-4-4-4-4-2-2------------------------------------|
D|--4-4-4-4-4-4-4-4-4-4-4-4-4-4-2-2-0-0-0-0-0-0-0-0--------------------|
A|--2-2-2-2-2-2-2-2-2-2-2-2-2-2-0-0-2-2-2-2-2-2-2-2-2-2-2-0-0-0-2-2-2--|
E|----------------------------------3-3-3-3-3-3-3-3-3-3-3-2-2-2-0-0-0--|

Break:

    Bm       G        Em       A7             Bm     G     Em         A7
e|------------------------x--------------------------------------------------|
B|-----7--------------8-8-8--8-10-10-10-10-8--7---7-----------7h8-7h8-10-8-7-|
G|-----7---------10---7-7-7--7--------------------7---9b-9b-9----------------|
D|----9--7-9------9-------x---------------------9---9------------------------|
A|----9------10--10----------------------------------------------------------|
E|--7------------------------------------------------------------------------|


Now both guitars go back and repeat the verse and chorus, the chorus plays through twice 
then another break:
   Bm       G       Em          A7               Bm      G      Em        A7
e|----x---------------7-7-------------------------------------------------------|
B|----7---------------8-8-7h8-8-10-x-x-10-x-10-8--7---7-------------7h8p7-10-8--|
G|----7-7-------10------------------------------------7---9b-9b-9br-------------|
D|--------7------9----------------------------------9---9-----------------------|
A|----------10--10--7-----------------------------------------------------------|
E|--7---------------------------------------------------------------------------|


Middle Eight: (reduce tempo)

Guitar 1:

e|----------------7----------5~-----3--2--0--3--2--0----------|
B|--7~---------------7--5----5~--------------------0----------|
G|--7~------------------6----6~--------------------0--0-x-x---|
D|--7~------------------7---------0-------------------0-x-x---|
A|--5~------------------7---------2-------------------2-x-x---|
E|----------------------5---------3-------------------3-x-x---|

Guitar 2:

e|--2~-3-2-----2------------------------------------------------------|
B|--3~-----3-----3------2---3-2---------2-3-2-------------------------|
G|--2~-------2-----2--2---------2-----2-------2-----0~------0~----0-x-|
D|--0~----------------2---2-------2-2-----------2---0~------0~----0-x-|
A|--------------------0-------------0---------------2~------2~----2-x-|
E|--------------------------------------------------3~------3~----3-x-|

Outro:

    Bm         G        Em        A7             Bm      G        Em      A7
e|----------------------7-7-7-7-x----------------7----------------7-7----------------|
B|----7-7---------------8-8-8-8-x-10-10-10-10-8--7-7--------------8-7h8-8-10-10-10-8-|
G|----7-7-----------10---------------------------7---7--------10---------------------|
D|----9-9-7h9p7------9---------------------------9-----9-------9---------------------|
A|--------------10--10------------------------------------10--10---------------------|
E|--7--------------------------------------------------------------------------------|

   Bm         G      Em       A7         Bm          G     Em     A7
e|---------------------------------------------------------------------------|
B|--7------------------------------------------------------------------------|
G|----7---7---9b-9br-9--9-9-9-9-9-9b-r-7---7---7---7-9b^r-9-9-9-9-9-9~-------|
D|------9------------------------------------9---9---------------------------|
A|---------------------------------------------------------------------------|
E|---------------------------------------------------------------------------|


Both Guitars Play:

e|-------0----0----2---------0----0----2----2~----------|
B|--1----3----0----2----1----3----0----2----3~----------|
G|--0----2----0----3----0----2----0----3----4~----------|
D|--2----0----2----4----2----0----2----4----4~----------|
A|--3---------2----4----3---------2----4----2~----------|
E|------------0----2--------------0----2----------------|


Thanks for looking, please rate and comment etc.


| /  slide up
| \  slide down
| h  hammer-on
| p  pull-off
| ~  vibrato
| +  harmonic
| x  Mute note
===============================================================================





Comments


Popular Babyshambles tabs & chords
Back From The Dead 3 Chords
Delivery Chords
Karma Chameleon Chords
Beg Steal Or Borrow Intro Tabs
Fuck Forever 4 Tabs
Fuck Forever 6 Tabs
Lost Art Of Murder 2 Tabs
Man Who Came To Stay Intro Tabs
Loyalty Song Ukulele
Un Stookie Titled Ukulele


Song lyrics



↑ Back to top | Tablatures and chords are parodies/interpretations of the original songs. You may use it for private study, scholarship, research or language learning purposes only
© 2014 AZChords.com Contact us | Privacy policy | DMCA | Add/correct tabs | Request tabs | Top 50 tabs