>
 >
Carry On Up The Morning

Carry On Up The Morning Guitar Tabs

Babyshambles - Carry On Up The Morning chords, tabs, tablatures, lyrics

Guitar lessons | Add/correct | Request | Top 50 tabs Artists:  A B C D E F G H I J K L M N O P Q R S T U V W X Y Z 0-9

Carry On Up The Morning Guitar Tabs – Babyshambles

CD, Sheet music, Poster

Do you like Carry On Up The Morning? Share with your friends now
TabsTabs v2Tabs v3Tabs v4
-------------------------------------------------------------------------------
-------------------------------------------------------------------------------



Tuning: Standard



Chords:

  Bm       B       G     Gmaj7*     A6      G6       E       C        D

e|---|  e|-7-|  e|-3-|  e|----|  e|-9--|  e|-7-|  e|-7-|  e|-8--|  e|-10-|
B|-7-|  B|-7-|  B|-3-|  B|-8--|  B|-10-|  B|-8-|  B|-9-|  B|-8--|  B|-10-|
G|-7-|  G|-8-|  G|-4-|  G|----|  G|-9--|  G|-7-|  G|-9-|  G|-9--|  G|-11-|
D|-9-|  D|-9-|  D|-5-|  D|-9--|  D|-11-|  D|-9-|  D|-9-|  D|-10-|  D|-12-|
A|-9-|  A|-9-|  A|-5-|  A|-10-|  A|-9--|  A|-7-|  A|-7-|  A|-10-|  A|-12-|
E|---|  E|-7-|  E|-3-|  E|----|  E|-9--|  E|-7-|  E|---|  E|-8--|  E|-10-|

*Slight variation on a Gmaj7, finger on B string is moved from 7th to 8th fret.


Intro:

Lead Guitar

e|-------------------------------------------|
B|-------------------------------------------|
G|-b9-b9-b9-9-7------------------------------|
D|--------------9---------------b9-----------|
A|--------------------9-9-10-10--------------|
E|----------------7-7------------------------|

e|-------------------------------------------|
B|-8h12r-10-10-x-10-x-8-7--------------------|
G|--------------------------7---b9-b9-b9-v9--|
D|------------------------9---9--------------|
A|-------------------------------------------|
E|-------------------------------------------|

e|-------------------------------------------|
B|-10-10-10-8-7------------------------------|
G|----------------7---x--0-------------------|
D|--------------9---9-x----9s----------------|
A|-------------------------------------------|
E|-------------------------------------------|


e|-------------------------------------------|
B|-8h12r-10-10-x-10-x-8-7--------------------|
G|--------------------------7---b9-b9-b9-----|
D|------------------------9---9--------------|
A|-------------------------------------------|
E|-------------------------------------------|

e|-------------------------------------------|
B|-7h8h8--10-8-------------------------------|
G|-------------------------------------------|
D|-------------------------------------------|
A|-------------------------------------------|
E|-------------------------------------------|

Rhythm Guitar

Mute strings to the rhythm, throwing in some muffled Bm and Gmaj7 chords

Then...

e|------------------777-7--9-x9-x7-----------|
B|-7-7-7-7------8---888-8--10x10x8-----------|
G|-7-7-7-7-------------------x--x------------|
D|-9-9-9-9---9--9---999-9--11x11x9-----------|
A|-9-9-9-9---10-10--777-7--9-x9-x7-----------|
E|-------------------------------------------|

0
e|-------------7-7-7-------------------------|
B|-7-7-7-7-----8-8-8-------------------------|
G|-7-7-7-7-----------------------------------|
D|-9-9-9-9-----9-9-9-------------------------|
A|-9-9-9-9-----7-7-7-------------------------|
E|-------------------------------------------|

Verse: C D E A - then repeat this: Bm Gmaj7 E A6

Pre Chorus: B G

Bridge: D A6 Gmaj7

These chords are repeated throughout the song, easy to work out the strumming pattern.

Chorus: Ad-lib the intro riff
 
Outro: Bm Gmaj7 A A6 - repeat twice then end on - D



| s  slide out of note
| h  hammer-on
| p  pull-off
| v  vibrato
| x  Mute note
===============================================================================





Comments


Popular Babyshambles tabs & chords
Back From The Dead 1 Chords
Beg, Steal Or Borrow 1 Chords
Man Who Came To Stay Chords
Unbilotitled Chords
Back From The Dead 2 Tabs
Baddies Boogie Intro Tabs
Crumb Begging Baghead Intro Tabs
In Love With A Feeling 1 Tabs
Pipe Down 1 Tabs
Albion Ukulele


Song lyrics



↑ Back to top | Tablatures and chords are parodies/interpretations of the original songs. You may use it for private study, scholarship, research or language learning purposes only
© 2014 AZChords.com Contact us | Privacy policy | DMCA | Add/correct tabs | Request tabs | Top 50 tabs