» » »

Avril Lavigne, Runaway Tabs (ver.3)

Artists:  A B C D E F G H I J K L M N O P Q R S T U V W X Y Z # 

Runaway Tabs (ver.3)

Avril Lavigne Tabs
 Rating:
4/5 (4 votes)
Runaway lessons Tabs too difficult? Try these video lessons and learn fast
1
                -------------------------------------------------------------------------------
                              Runaway - Avril Lavigne
-------------------------------------------------------------------------------

Tuning: Standard EADGBe

Intro:
Nothing is played here by any guitars

Verse 1:

Guitar 1
    C5    G5F5  G5
e|------------------|x8
B|------------------|x8
G|--5-5-------------|x8
D|--5-5---5-3-3-5-55|x8
A|--3-3---5-3-3-5-55|x8
E|--------3-1-1-3-33|x8

Pre-Chorus:

Guitar 1
    C5    G5F5  G5
e|------------------|x4
B|------------------|x4
G|--5-5-------------|x4
D|--5-5---5-3-3-5-55|x4
A|--3-3---5-3-3-5-55|x4
E|--------3-1-1-3-33|x4

Chorus:

Guitar 1
  A5     C5                F5
e|-----------------------------------------|x4
B|-----------------------------------------|x4
G|77777771010101010101010103333333333333333|x4
D|77777771010101010101010103333333333333333|x4
A|55555558-8-8-8-8-8-8-8-8-1111111111111111|x4
E|-----------------------------------------|x4

Guitar 2
  B5     D5
e|-------------------------|x8
B|-------------------------|x8
G|9999999121212121212121212|x8
D|-------------------------|x8
A|7777777101010101010101010|x8
E|-------------------------|x8

Verse 1:

Guitar 1
    C5    G5F5  G5
e|------------------|x8
B|------------------|x8
G|--5-5-------------|x8
D|--5-5---5-3-3-5-55|x8
A|--3-3---5-3-3-5-55|x8
E|--------3-1-1-3-33|x8

Pre-Chorus:

Guitar 1
    C5    G5F5  G5
e|------------------|x4
B|------------------|x4
G|--5-5-------------|x4
D|--5-5---5-3-3-5-55|x4
A|--3-3---5-3-3-5-55|x4
E|--------3-1-1-3-33|x4

Chorus:

Guitar 1
  A5     C5                F5
e|-----------------------------------------|x4
B|-----------------------------------------|x4
G|77777771010101010101010103333333333333333|x4
D|77777771010101010101010103333333333333333|x4
A|55555558-8-8-8-8-8-8-8-8-1111111111111111|x4
E|-----------------------------------------|x4

Guitar 2
  B5     D5
e|-------------------------|x8
B|-------------------------|x8
G|9999999121212121212121212|x8
D|-------------------------|x8
A|7777777101010101010101010|x8
E|-------------------------|x8

Bridge:
Guitars play softly here

Guitar 1
  A5     C5                F5
e|-----------------------------------------|x4
B|-----------------------------------------|x4
G|77777771010101010101010103333333333333333|x4
D|77777771010101010101010103333333333333333|x4
A|55555558-8-8-8-8-8-8-8-8-1111111111111111|x4
E|-----------------------------------------|x4

Guitar 2
  B5     D5
e|-------------------------|x8
B|-------------------------|x8
G|9999999121212121212121212|x8
D|-------------------------|x8
A|7777777101010101010101010|x8
E|-------------------------|x8

Ending:

Guitar 1
  A5     C5                F5
e|-----------------------------------------|x8|--|
B|-----------------------------------------|x8|--|
G|77777771010101010101010103333333333333333|x8|7~|
D|77777771010101010101010103333333333333333|x8|7~|
A|55555558-8-8-8-8-8-8-8-8-1111111111111111|x8|5~|
E|-----------------------------------------|x8|--|

Guitar 2
  B5     D5
e|-------------------------|x16
B|-------------------------|x16
G|9999999121212121212121212|x16
D|-------------------------|x16
A|7777777101010101010101010|x16
E|-------------------------|x16

************************************
| -   half-beat
| ~   hold chord
************************************
            
Submit corrections

comments powered by Disqus
↑ Back to top | Avril Lavigne Tabs for Runaway. Lyrics for acoustic guitar and electric guitar. 1 Tablatures and chords are parodies/interpretations of the original songs. You may use it for private study, scholarship, research or language learning purposes only