>
 >
Innocence

Innocence Guitar Tabs

Avril Lavigne - Innocence chords, tabs, tablatures, lyrics

Guitar lessons | Add/correct | Request | Top 50 tabs Artists:  A B C D E F G H I J K L M N O P Q R S T U V W X Y Z 0-9

Innocence Guitar Tabs – Avril Lavigne

CD, Sheet music, Poster

Do you like Innocence? Share with your friends now
Bass TabsChordsChords v2Chords v3Chords v4TabsTabs v2UkuleleUkulele v2

IMPORTANT! TUNNING: 1/2 STEP DOWN!

Chords:

   Dm   Dm/A#   C  A#sus2 Dsus2
e|--1--|--1--|--0--|--1--|--0--|
B|--3--|--3--|--x--|--1--|--3--|
G|--2--|--2--|--5--|--3--|--2--|
D|--0--|--3--|--5--|--3--|--0--|
A|--x--|--1--|--3--|--1--|--x--|
E|--x--|--x--|--x--|--x--|--x--|


Intro/Outro:

e|------0-1-0------0--1--|-----0-1-0------------|
B|--------------1--------|--------------1---3---|
G|-----------------------|----------------------|
D|--0--------------------|----------------------|
A|-----------------------|--1-------------------|
E|-----------------------|----------------------|



Verse 1:

Dm                 Dm/A#
Waking up and see that everything is OK
Dm                       Dm/A#
The first time in my life and now it's so great
Dm                         Dm/A#
Slowing down I look around and I'm so amazed
Dm            Dm/A#                            C
I think about the little things that make life great
                  A#sus2
I wouldn't change I think about it
C               A#sus2
This is the best feeling




Chorus:

Dm       A#           F         C
This innocence is brilliant, I hope that it will stay
Dm        A#      F     C
This moment is perfect, please don't go away
Dm  A#   F    C
I need you now


And I hold on   to  it   Don't you  let it pass you by
e|-----------------------------------------------|
B|----3----5----6----8----5----6----8------------|
G|-----------------------------------------------|
D|-----------------------------------------------|
A|-----------------------------------------------|
E|-----------------------------------------------|

Repeat Intro 2 times



Verse 2: same as verse 1

I found a place so safe, not a single tear
The first time in my life and now it's so clear
Feel calm, I belong, I'm so happy here
It's so strong and now I let myself be sincere
I wouldn't change I think about it
This is the best feeling



Chorus:

Dm       A#           F         C
This innocence is brilliant, I hope that it will stay
Dm        A#      F     C
This moment is perfect, please don't go away
Dm  A#   F    C
I need you now

A#sus2
And I'll hold on to it
C
Don't you let it passed you by



Bridge:

A#sus2                  F
It's the state of bliss you think you're dreaming
C                    Dsus2
It's the happeness inside of your feeling
A#sus2            F           C
It's so beautiful it makes you wanna cry





Comments


Popular Avril Lavigne tabs & chords
Imagine 1 Chords
Nobody's Home Chords
Not Enough 1 Chords
Rock N Roll Chords
Something Isnt Right Chords
Dont Tell Me 1 Tabs
Nobodys Home 1 Tabs
When Your Gone Tabs
Things Ill Never Say Ukulele
When Youre Gone Ukulele


Song lyrics



↑ Back to top | Tablatures and chords are parodies/interpretations of the original songs. You may use it for private study, scholarship, research or language learning purposes only
© 2014 AZChords.com Contact us | Privacy policy | DMCA | Add/correct tabs | Request tabs | Top 50 tabs