» » »

Runaway Tabs (ver.2)

Artists:  A B C D E F G H I J K L M N O P Q R S T U V W X Y Z # 

Runaway Tabs (ver.2)

Avril Lavigne
Rating:
0/5 (0 votes)

Tabs too difficult? Try these video lessons and learn fast.
                Avril Lavigne
Runaway
The Best Damn Thing (2007)

Verse
E|-------------------|
B|-------------------|
G|-------------------|
D|-5-5---------------| x12
A|-3-3---5/3-3---5-5-|
E|-------3/1-1---3-3-|

Chorus
E|---------------------------------------|
B|---------------------------------------|
G|---------------------------------------|
D|-7777777-10101010101010-33333333333333-| x4
A|-7777777-10101010101010-33333333333333-|
E|-5555555-8-8-8-8-8-8-8--11111111111111-|

Verse 2
E|-------------------|
B|-------------------|
G|-------------------|
D|-5-5---------------| x9
A|-3-3---5/3-3---5-5-|
E|-------3/1-1---3-3-|

Chorus
E|---------------------------------------|
B|---------------------------------------|
G|---------------------------------------|
D|-7777777-10101010101010-33333333333333-| x4
A|-7777777-10101010101010-33333333333333-|
E|-5555555-8-8-8-8-8-8-8--11111111111111-|

Bridge

E|---------------------------------------|
B|---------------------------------------|
G|---------------------------------------|
D|-7777777-10101010101010-33333333333333-| x4
A|-xxxxxxx-xxxxxxxxxxxxxx-xxxxxxxxxxxxxx-|
E|-5555555-8-8-8-8-8-8-8--11111111111111-|

Chorus
E|---------------------------------------|
B|---------------------------------------|
G|---------------------------------------|
D|-7777777-10101010101010-33333333333333-| x8
A|-7777777-10101010101010-33333333333333-|
E|-5555555-8-8-8-8-8-8-8--11111111111111-|

End Chord
E|------|
B|------|
G|------|
D|--7---| 
A|--7---|
E|--5---|
            
Tabs too difficult? Try these video lessons and learn fast.


comments powered by Disqus
↑ Back to top | Tablatures and chords are parodies/interpretations of the original songs. You may use it for private study, scholarship, research or language learning purposes only