» » »

Avril Lavigne, Runaway Tabs (ver.1)

Artists:  A B C D E F G H I J K L M N O P Q R S T U V W X Y Z # 

Runaway Tabs (ver.1)

Avril Lavigne Tabs
 Rating:
4/5 (4 votes)
Runaway lessons Tabs too difficult? Try these video lessons and learn fast
1
                 Avril Lavigne - Runaway

[Updated 3 August 2010]

Tuning: Guitar 1: Drop D
        Guitar 2: standard
Verse
guitar 1
e|--------------------------------------|
B|--------------------------------------|
G|--5-5x--------------------------------|
D|--5-5x---5---3--3-3---5-5-------------| x8
A|--3-3x---5---3--3-3---5-5-------------|
D|---------5---3--3-3---5-5-------------|

Pre-chorus
Guitar 1
e|--------------------------------------|    e|-----------------------|
B|--------------------------------------|    B|-----------------------|
G|--5-5x--------------------------------|    G|--5-5------------------|
D|--5-5x---5---3--3-3---5-5-------------| x4 D|--5-5-5-3--7777777777--|
A|--3-3x---5---3--3-3---5-5-------------|    A|--3-3-5-3--7777777777--|  
D|---------5---3--3-3---5-5-------------|    D|------5-5--7777777777--|


                                             Guitar 2 
                                             e|----------------------|
                                             B|----------xxx8888888--|
                                             G|----------xxx9999999--|
               guitar 2 comes in -->         D|----------xxx9999999--|
                                             A|----------xxx7777777--|
                                             E|----------------------|
   

Chorus
guitar 1
e|----------------------------------------|
B|----------------------------------------|
G|------------55555555--5555555555555555--|
D|--77777777--55555555--5555555555555555--| x4
A|--77777777--33333333--3333333333333333--|
D|--77777777------------3333333333333333--|

guitar 2
e|--0000000--3333333---0000000-333333-------|
B|--5555555--5555555---5555555-555555-6-5---|
G|--5555555--5555555---5555555-555555-5-5---| x4
D|---------------------3333333-333333-3-3---|
A|------------------------------------------|
E|------------------------------------------|


Post-chorus
guitar 1
e|--------------------------------------|
B|--------------------------------------|
G|--5-5x--------------------------------|
D|--5-5x---5---3--3-3---5-5-------------| 
A|--3-3x---5---3--3-3---5-5-------------|
D|---------5---3--3-3---5-5-------------|

Verse
guitar 1
e|--------------------------------------|
B|--------------------------------------|
G|--5-5x--------------------------------|
D|--5-5x---5---3--3-3---5-5-------------| x4
A|--3-3x---5---3--3-3---5-5-------------|
D|---------5---3--3-3---5-5-------------|

repeat all of the above


Bridge
Guitar 1 
e|----------------------------------------|
B|----------------------------------------|
G|------------55555555--5555555555555555--|
D|--77777777--55555555--5555555555555555--| x5
A|--77777777--33333333--3333333333333333--|
D|--77777777------------3333333333333333--|

guitar 2
e|--0000000--3333333---0000000-33333333---|
B|--5555555--5555555---5555555-55555555---|
G|--5555555--5555555---5555555-55555555---| x5
D|---------------------3333333-33333333---| 
A|----------------------------------------| 
E|----------------------------------------|


Chorus
guitar 1
e|----------------------------------------|
B|----------------------------------------|
G|------------55555555--------------------|
D|--77777777--55555555--3333333333333333--| x4
A|--77777777--33333333--3333333333333333--|
E|--55555555------------1111111111111111--|

guitar 2
e|--0000000--3333333---0000000-333333-------|
B|--5555555--5555555---5555555-555555-6-5---|
G|--5555555--5555555---5555555-555555-5-5---| x4
D|---------------------3333333-333333-3-3---|
A|------------------------------------------|
E|------------------------------------------|


Have fun ! :)
            
Submit corrections

comments powered by Disqus
↑ Back to top | Avril Lavigne Tabs for Runaway. Lyrics for acoustic guitar and electric guitar. 1 Tablatures and chords are parodies/interpretations of the original songs. You may use it for private study, scholarship, research or language learning purposes only