» » »

My Happy Ending Tabs (ver.6)

Artists:  A B C D E F G H I J K L M N O P Q R S T U V W X Y Z # 

My Happy Ending Tabs (ver.6)

Avril Lavigne
Rating:
0/5 (0 votes)

Hard to play? Try these video lessons and learn fast.
                Intro (DISTORTED):

In the brackets are the harmonic tabs which can be played while she's singing.

      Bm        G         D         A
e:|--------------------------------------------|
B:|-------(7-5)----(7-3)-----(3-2)-----(2-3)---|
G:|---4-4----------------7-7-------------------|
D:|---4-4------5-5-------7-7-------7-7---------|
A:|---2-2------5-5-------5-5-------7-7---------|
E:|------------3-3-----------------5-5---------|
       Bm       G         D         A
e:|--------------------------------------------|
B:|-------(7-5)----(7-3)-----(3-2)-------------|
G:|---4-4----------------7-7-------------------|
D:|---4-4------5-5-------7-7-------7~----------|
A:|---2-2------5-5-------5-5-------7~----------|
E:|------------3-3-----------------5~----------|


Verse 1 (CLEAN):

In the 1st Verse plays the piano.
You can choose whether you play the chords you want.


Bm     G     D     A

 1     3     2     0
 2     0     3     2
 3     0     2     2
 3     0     0     2
 1     2     x     0
 x     3     x     x


Pre Chorus (CLEAN):

 
      G               Asus            G               Asus
e:|----------------------------------------------------------------------|
B:|-----------3---------------3---------------3---------------3----------|
G:|-------0-----0---0-----2-----2---2-----0-----0---0-----2-----2---2----|
D:|-----0---0-----0-----2---2-----2-----0---0-----0-----2---2-----2------|
A:|-------------------0-------------------------------0------------------|
E:|---3-------------------------------3----------------------------------|

Chorus (DISTORTED):

         G       D       A       A        G       D       A       A
e:|----------------------------------------------------------------------|
B:|----------------------------------------------------------------------|
G:|-----------7-7-7-7--------------------------7-7-7-7-------------------|
D:|---5-5-5-5-7-7-7-7-7-7-7-7-7-7-7-7--5-5-5-5-7-7-7-7-7-7-7-7-7-7-7-7---|
A:|---5-5-5-5-5-5-5-5-7-7-7-7-7-7-7-7--5-5-5-5-5-5-5-5-7-7-7-7-7-7-7-7---|
E:|---3-3-3-3---------5-5-5-5-5-5-5-5--3-3-3-3---------5-5-5-5-5-5-5-5---|

         G       D       A      Bm      
e:|-------------------------------------|
B:|-------------------------------------|
G:|-----------7-7-7-7-------------------|
D:|---5-5-5-5-7-7-7-7-7-7-7-7-9-9-9-9---|
A:|---5-5-5-5-5-5-5-5-7-7-7-7-9-9-9-9---|
E:|---3-3-3-3---------5-5-5-5-7-7-7-7---|

        Em     Em     F#m   G
e:|-------------------------------------|
B:|-------------------------------------|
G:|-------------------------------------|
D:|---2-2-2-2-2-2--2 / 4 / 5-5----------|
A:|---2-2-2-2-2-2--2 / 4 / 5-5----------|
E:|---0-0-0-0-0-0--0 / 2 / 3-3----------|

Play Intro Again (DISTORTED):

Start with a fat Slide on the 3 top strings!
I think if you begin with sliding on 8th fret it sounds cool!

         Bm        G         D         A
e:|-----------------------------------------------|
B:|-----------------------------------------------|
G:|------4-4----------------7-7-------------------|
D:|---8\-4-4------5-5-------7-7-------7-7---------|
A:|---8\-2-2------5-5-------5-5-------7-7---------|
E:|---8\----------3-3-----------------5-5---------|
         Bm        G         D         A
e:|-----------------------------------------------|
B:|-----------------------------------------------|
G:|------4-4----------------7-7-------------------|
D:|------4-4------5-5-------7-7-------7~----------|
A:|------2-2------5-5-------5-5-------7~----------|
E:|---------------3-3-----------------5~----------|


Verse 2 (CLEAN):

Same thing like in Verse 1.
In the song the 2nd Guitar starts to play the chords.


Bm     G     D     A

 1     3     2     0
 2     0     3     2
 3     0     2     2
 3     0     0     2
 1     2     x     0
 x     3     x     x

Pre Chorus (CLEAN):


      G               Asus            G               Asus
e:|----------------------------------------------------------------------|
B:|-----------3---------------3---------------3---------------3----------|
G:|-------0-----0---0-----2-----2---2-----0-----0---0-----2-----2---2----|
D:|-----0---0-----0-----2---2-----2-----0---0-----0-----2---2-----2------|
A:|-------------------0-------------------------------0------------------|
E:|---3-------------------------------3----------------------------------|


Chorus:

         G       D       A       A        G       D       A       A
e:|----------------------------------------------------------------------|
B:|----------------------------------------------------------------------|
G:|-----------7-7-7-7--------------------------7-7-7-7-------------------|
D:|---5-5-5-5-7-7-7-7-7-7-7-7-7-7-7-7--5-5-5-5-7-7-7-7-7-7-7-7-7-7-7-7---|
A:|---5-5-5-5-5-5-5-5-7-7-7-7-7-7-7-7--5-5-5-5-5-5-5-5-7-7-7-7-7-7-7-7---|
E:|---3-3-3-3---------5-5-5-5-5-5-5-5--3-3-3-3---------5-5-5-5-5-5-5-5---|

         G       D       A      Bm      
e:|-------------------------------------|
B:|-------------------------------------|
G:|-----------7-7-7-7-------------------|
D:|---5-5-5-5-7-7-7-7-7-7-7-7-9-9-9-9---|
A:|---5-5-5-5-5-5-5-5-7-7-7-7-9-9-9-9---|
E:|---3-3-3-3---------5-5-5-5-7-7-7-7---|

        Em     Em     F#m   G
e:|-------------------------------------|
B:|-------------------------------------|
G:|-------------------------------------|
D:|---2-2-2-2-2-2--2 / 4 / 5-5----------|
A:|---2-2-2-2-2-2--2 / 4 / 5-5----------|
E:|---0-0-0-0-0-0--0 / 2 / 3-3----------|


Bridge (DISTORTED):

         A       A       G       G       A       A       G       G
e:|---------------------------------------------------------------------|
B:|---------------------------------------------------------------------|
G:|---------------------------------------------------------------------|
D:|---7-7-7-7-7-7-7-7-5-5-5-5-5-5-5-5-7-7-7-7-7-7-7-7-5-5-5-5-5-5-5-5---|
A:|---7-7-7-7-7-7-7-7-5-5-5-5-5-5-5-5-7-7-7-7-7-7-7-7-5-5-5-5-5-5-5-5---|
E:|---5-5-5-5-5-5-5-5-3-3-3-3-3-3-3-3-5-5-5-5-5-5-5-5-3-3-3-3-3-3-3-3---|

         A       A      Bm      Bm       A       A       G      G     
e:|---------------------------------------------------------------------|
B:|---------------------------------------------------------------------|
G:|---------------------------------------------------------------------|
D:|---7-7-7-7-7-7-7-7-9-9-9-9-9-9-9-9-5-5-5-5-5-5-5-5-7-7-7-7-7-7-7-7---|
A:|---7-7-7-7-7-7-7-7-9-9-9-9-9-9-9-9-5-5-5-5-5-5-5-5-7-7-7-7-7-7-7-7---|
E:|---5-5-5-5-5-5-5-5-7-7-7-7-7-7-7-7-3-3-3-3-3-3-3-3-5-5-5-5-5-5-5-5---|


Chorus:
       -CLEAN-               -DISTORTED-                  
      G    D    A                          G       D       A       A
e:|---3~ --3~ --0~ -------------------------------------------------------|
B:|---0~ --2~ --2~ -------------------------------------------------------|
G:|---0~ --3~ --2~ -----------------------------7-7-7-7-------------------|
D:|---0~ --0~ --2~ ---------------------5-5-5-5-7-7-7-7-7-7-7-7-7-7-7-7---|
A:|---2~ -------0~ ---------------------5-5-5-5-5-5-5-5-7-7-7-7-7-7-7-7---|
E:|---3~ -----------------------<5>-----3-3-3-3---------5-5-5-5-5-5-5-5---|

         G       D       A      Bm      
e:|-------------------------------------|
B:|-------------------------------------|
G:|-----------7-7-7-7-------------------|
D:|---5-5-5-5-7-7-7-7-7-7-7-7-9-9-9-9---|
A:|---5-5-5-5-5-5-5-5-7-7-7-7-9-9-9-9---|
E:|---3-3-3-3---------5-5-5-5-7-7-7-7---|

        Em     Em     F#m   G
e:|------------------------------------------|
B:|------------------------------------------|
G:|------------------------------------------|
D:|---2-2-2-2-2-2--2 / 4 / 5-5-5-5-5-5-5-5---|
A:|---2-2-2-2-2-2--2 / 4 / 5-5-5-5-5-5-5-5---|
E:|---0-0-0-0-0-0--0 / 2 / 3-3-3-3-3-3-3-5---|


         G       D       A       A        G       D       A       A
e:|----------------------------------------------------------------------|
B:|----------------------------------------------------------------------|
G:|-----------7-7-7-7--------------------------7-7-7-7-------------------|
D:|---5-5-5-5-7-7-7-7-7-7-7-7-7-7-7-7--5-5-5-5-7-7-7-7-7-7-7-7-7-7-7-7---|
A:|---5-5-5-5-5-5-5-5-7-7-7-7-7-7-7-7--5-5-5-5-5-5-5-5-7-7-7-7-7-7-7-7---|
E:|---3-3-3-3---------5-5-5-5-5-5-5-5--3-3-3-3---------5-5-5-5-5-5-5-5---|

         G       D       A      Bm      
e:|-------------------------------------|
B:|-------------------------------------|
G:|-----------7-7-7-7-------------------|
D:|---5-5-5-5-7-7-7-7-7-7-7-7-9-9-9-9---|
A:|---5-5-5-5-5-5-5-5-7-7-7-7-9-9-9-9---|
E:|---3-3-3-3---------5-5-5-5-7-7-7-7---|

        Em     Em     F#m   G
e:|-------------------------------------|
B:|-------------------------------------|
G:|-------------------------------------|
D:|---2-2-2-2-2-2--2 / 4 / 5-5-5--------|
A:|---2-2-2-2-2-2--2 / 4 / 5-5-5--------|
E:|---0-0-0-0-0-0--0 / 2 / 3-3-3--------|


Intro (DISTORTED):

Play again the Slide at the beginning!

         Bm        G         D         A
e:|-----------------------------------------------|
B:|-----------------------------------------------|
G:|------4-4----------------7-7-------------------|
D:|---8\-4-4------5-5-------7-7-------7-7---------|
A:|---8\-2-2------5-5-------5-5-------7-7---------|
E:|---8\----------3-3-----------------5-5---------|

         Bm        G         D         A
e:|-----------------------------------------------|
B:|-----------------------------------------------|
G:|------4-4----------------7-7-------------------|
D:|------4-4------5-5-------7-7-------7-7---------|
A:|------2-2------5-5-------5-5-------7-7---------|
E:|---------------3-3-----------------5-5---------|

Play it till the end of the song!

That's it, Have Fun!
_____________________________________________________________________________
Lyrics:

Oh oh, oh oh
So much for my happy ending

Oh oh, oh oh
So much for my happy ending

Oh oh, oh oh, oh oooooh....

Let's talk this over
It's not like we're dead
Was it something I did?
Was it something you said?

Don't leave me hangin'
In a city so dead
Held up so high 
On such a breakable thread

[Pre-Chorus:]
You were all the things I thought I knew
And I thought we could be

[Chorus:]
You were everything, everything that I wanted 
We were meant to be, supposed to be
But we lost it (but we lost it)
All of the memories, so close to me
Just fade away
All this time you were pretending
So much for my happy ending

Oh oh, oh oh
So much for my happy ending (Oh oh, oh oh)

Oh oh, oh oh

You've got your dumb friends
I know what they say
They tell you I'm difficult
But so are they (So are they)
But they don't know me 
Do they even know you? (Even know you)
All the things you hide from me
All the sh*t that you do (All the sh*t that you do)

You were all the things I thought I knew
And I thought we could be

[Chorus:]
You were everything, everything that I wanted 
We were meant to be, supposed to be, but we lost it 
all of the memories, so close to me, just fade away
All this time you were pretending
So much for my happy ending

It's nice to know that you were there,
Thanks for acting like you cared
And making me feel like I was the only one
It's nice to know we had it all
Thanks for watching as I fall
And letting me know we were done


[Chorus:]
He was everything, everything that I wanted
We were meant to be, supposed to be, but we lost it
And all of the memories, so close to me, just fade away
All this time you were pretending
So much for my happy ending...

[Chorus:]
You were everything, everything that I wanted
And we were meant to be, supposed to be, but we lost it
And all of the memories, so close to me, just fade away
All this time you were pretending
So much for my happy ending

Oh oh, oh oh
So much for my happy ending
Oh oh, oh oh
So much for my happy ending 

Oh oh, oh oh, oh oh....
Oh ooooh....
            
Hard to play? Try these video lessons and learn fast. | Correct




comments powered by Disqus
↑ Back to top | Tablatures and chords are parodies/interpretations of the original songs. You may use it for private study, scholarship, research or language learning purposes only