» » »

Avril Lavigne, My Happy Ending Tabs (ver.3)

Artists:  A B C D E F G H I J K L M N O P Q R S T U V W X Y Z # 

My Happy Ending Tabs (ver.3)

Avril Lavigne Tabs
 Rating:
4/5 (4 votes)
My Happy Ending lessons Tabs too difficult? Try these video lessons and learn fast
                
x(number)===>>> How many times you have to play it
**** ===>>> Let it ring
//// ===>>> Slide down
xxxx ===>>> Dont play this string




INTRO

|-2-2----3-3----2-2----0-0-|
|-3-3----0-0----3-3----2-2-|
|-4-4----0-0----2-2----2-2-|  x2
|-4-4----0-0----0-0----2-2-|
|-2-2----2-2----0-0----0-0-|
|-2-2----3-3----x-x----0-0-|


VERSE

|-2-2-2-2----3-3-3-3----2-2-2-2----0-0-0-0-|
|-3-3-3-3----0-0-0-0----3-3-3-3----2-2-2-2-|
|-4-4-4-4----0-0-0-0----2-2-2-2----2-2-2-2-|  x2
|-4-4-4-4----0-0-0-0----0-0-0-0----2-2-2-2-|
|-2-2-2-2----2-2-2-2----0-0-0-0----0-0-0-0-|
|-2-2-2-2----3-3-3-3----x-x-x-x----0-0-0-0-|


PRE-CHORUS

|---------0--------------0--------------0--------------0-|
|-----3-----3--------0-----0--------3-----3--------0-----|
|---2---2-----2----2---2-----2----2---2-----2----2---2---|
|--------------------------------------------------------|
|----------------0-----------------------------0---------|
|-3-----------------------------3------------------------|


CHORUS

|-3-3-3-3----2-2-2-2----0-0-0-0-0-0-0-0-|
|-0-0-0-0----3-3-3-3----2-2-2-2-2-2-2-2-|
|-0-0-0-0----2-2-2-2----2-2-2-2-2-2-2-2-|
|-0-0-0-0----0-0-0-0----2-2-2-2-2-2-2-2-|
|-2-2-2-2----0-0-0-0----0-0-0-0-0-0-0-0-|
|-3-3-3-3----x-x-x-x----0-0-0-0-0-0-0-0-|

|-3-3-3-3----2-2-2-2----0-0-0-0-0-0-0-0-|
|-0-0-0-0----3-3-3-3----2-2-2-2-2-2-2-2-|
|-0-0-0-0----2-2-2-2----2-2-2-2-2-2-2-2-|
|-0-0-0-0----0-0-0-0----2-2-2-2-2-2-2-2-|
|-2-2-2-2----0-0-0-0----0-0-0-0-0-0-0-0-|
|-3-3-3-3----x-x-x-x----0-0-0-0-0-0-0-0-|

|-3-3-3-3----2-2-2-2----0-0-0-0----2****|
|-0-0-0-0----3-3-3-3----2-2-2-2----3****|
|-0-0-0-0----2-2-2-2----2-2-2-2----4****|
|-0-0-0-0----0-0-0-0----2-2-2-2----4****|
|-2-2-2-2----0-0-0-0----0-0-0-0----2****|
|-3-3-3-3----x-x-x-x----0-0-0-0----2****|

|-0-0-0-0-0-0-0-0----3-3-|
|-0-0-0-0-0-0-0-0----0-0-|
|-1-1-1-1-1-1-1-1----0-0-|
|-2-2-2-2-2-2-2-2----0-0-|
|-2-2-2-2-2-2-2-2----2-2-|
|-0-0-0-0-0-0-0-0----3-3-|

|-////////////////////////////////|
|-xxxxxxxxxxxxxxxxxxxxxxxxxxxxxxxx|
|-xxxxxxxxxxxxxxxxxxxxxxxxxxxxxxxx|
|-xxxxxxxxxxxxxxxxxxxxxxxxxxxxxxxx|
|-xxxxxxxxxxxxxxxxxxxxxxxxxxxxxxxx|
|-xxxxxxxxxxxxxxxxxxxxxxxxxxxxxxxx|


INTRO

|-2-2----3-3----2-2----0-0-|
|-3-3----0-0----3-3----2-2-|
|-4-4----0-0----2-2----2-2-|  x2
|-4-4----0-0----0-0----2-2-|
|-2-2----2-2----0-0----0-0-|
|-2-2----3-3----x-x----0-0-|


VERSE

|-2-2-2-2----3-3-3-3----2-2-2-2----0-0-0-0-|
|-3-3-3-3----0-0-0-0----3-3-3-3----2-2-2-2-|
|-4-4-4-4----0-0-0-0----2-2-2-2----2-2-2-2-|  x2
|-4-4-4-4----0-0-0-0----0-0-0-0----2-2-2-2-|
|-2-2-2-2----2-2-2-2----0-0-0-0----0-0-0-0-|
|-2-2-2-2----3-3-3-3----x-x-x-x----0-0-0-0-|


PRE-CHORUS

|---------0--------------0--------------0--------------0-|
|-----3-----3--------0-----0--------3-----3--------0-----|
|---2---2-----2----2---2-----2----2---2-----2----2---2---|
|--------------------------------------------------------|
|----------------0-----------------------------0---------|
|-3-----------------------------3------------------------|


CHORUS

|-3-3-3-3----2-2-2-2----0-0-0-0-0-0-0-0-|
|-0-0-0-0----3-3-3-3----2-2-2-2-2-2-2-2-|
|-0-0-0-0----2-2-2-2----2-2-2-2-2-2-2-2-|
|-0-0-0-0----0-0-0-0----2-2-2-2-2-2-2-2-|
|-2-2-2-2----0-0-0-0----0-0-0-0-0-0-0-0-|
|-3-3-3-3----x-x-x-x----0-0-0-0-0-0-0-0-|

|-3-3-3-3----2-2-2-2----0-0-0-0-0-0-0-0-|
|-0-0-0-0----3-3-3-3----2-2-2-2-2-2-2-2-|
|-0-0-0-0----2-2-2-2----2-2-2-2-2-2-2-2-|
|-0-0-0-0----0-0-0-0----2-2-2-2-2-2-2-2-|
|-2-2-2-2----0-0-0-0----0-0-0-0-0-0-0-0-|
|-3-3-3-3----x-x-x-x----0-0-0-0-0-0-0-0-|

|-3-3-3-3----2-2-2-2----0-0-0-0----2****|
|-0-0-0-0----3-3-3-3----2-2-2-2----3****|
|-0-0-0-0----2-2-2-2----2-2-2-2----4****|
|-0-0-0-0----0-0-0-0----2-2-2-2----4****|
|-2-2-2-2----0-0-0-0----0-0-0-0----2****|
|-3-3-3-3----x-x-x-x----0-0-0-0----2****|

|-0-0-0-0-0-0-0-0----3-3-3-3-3-3-3-3-|
|-0-0-0-0-0-0-0-0----0-0-0-0-0-0-0-0-|
|-1-1-1-1-1-1-1-1----0-0-0-0-0-0-0-0-|
|-2-2-2-2-2-2-2-2----0-0-0-0-0-0-0-0-|
|-2-2-2-2-2-2-2-2----2-2-2-2-2-2-2-2-|
|-0-0-0-0-0-0-0-0----3-3-3-3-3-3-3-3-|


BRIDGE

|-0-0-0-0-0-0-0-0----3-3-3-3-3-3-3-3-|
|-2-2-2-2-2-2-2-2----0-0-0-0-0-0-0-0-|
|-2-2-2-2-2-2-2-2----0-0-0-0-0-0-0-0-|  x2
|-2-2-2-2-2-2-2-2----0-0-0-0-0-0-0-0-|
|-0-0-0-0-0-0-0-0----2-2-2-2-2-2-2-2-|
|-0-0-0-0-0-0-0-0----3-3-3-3-3-3-3-3-|

|-0-0-0-0-0-0-0-0----2-2-2-2-2-2-2-2----3-3-3-3-3-3-3-3----0****|
|-2-2-2-2-2-2-2-2----3-3-3-3-3-3-3-3----0-0-0-0-0-0-0-0----2****|
|-2-2-2-2-2-2-2-2----4-4-4-4-4-4-4-4----0-0-0-0-0-0-0-0----2****|
|-2-2-2-2-2-2-2-2----4-4-4-4-4-4-4-4----0-0-0-0-0-0-0-0----2****|
|-0-0-0-0-0-0-0-0----2-2-2-2-2-2-2-2----2-2-2-2-2-2-2-2----0****|
|-0-0-0-0-0-0-0-0----2-2-2-2-2-2-2-2----3-3-3-3-3-3-3-3----0****|


CHORUS

|-3----2----0----/////////////|
|-0----3----2----xxxxxxxxxxxxx|
|-0----2----2----xxxxxxxxxxxxx|
|-0----0----2----xxxxxxxxxxxxx|
|-2----0----0----xxxxxxxxxxxxx|
|-3----x----0----xxxxxxxxxxxxx|

|-3-3-3-3----2-2-2-2----0-0-0-0-0-0-0-0-|
|-0-0-0-0----3-3-3-3----2-2-2-2-2-2-2-2-|
|-0-0-0-0----2-2-2-2----2-2-2-2-2-2-2-2-|
|-0-0-0-0----0-0-0-0----2-2-2-2-2-2-2-2-|
|-2-2-2-2----0-0-0-0----0-0-0-0-0-0-0-0-|
|-3-3-3-3----x-x-x-x----0-0-0-0-0-0-0-0-|

|-3-3-3-3----2-2-2-2----0-0-0-0----2****|
|-0-0-0-0----3-3-3-3----2-2-2-2----3****|
|-0-0-0-0----2-2-2-2----2-2-2-2----4****|
|-0-0-0-0----0-0-0-0----2-2-2-2----4****|
|-2-2-2-2----0-0-0-0----0-0-0-0----2****|
|-3-3-3-3----x-x-x-x----0-0-0-0----2****|

|-0-0-0-0-0-0-0-0----3-3-3-3-3-3-3-3-|
|-0-0-0-0-0-0-0-0----0-0-0-0-0-0-0-0-|
|-1-1-1-1-1-1-1-1----0-0-0-0-0-0-0-0-|
|-2-2-2-2-2-2-2-2----0-0-0-0-0-0-0-0-|
|-2-2-2-2-2-2-2-2----2-2-2-2-2-2-2-2-|
|-0-0-0-0-0-0-0-0----3-3-3-3-3-3-3-3-|

CHORUS

|-3-3-3-3----2-2-2-2----0-0-0-0-0-0-0-0-|
|-0-0-0-0----3-3-3-3----2-2-2-2-2-2-2-2-|
|-0-0-0-0----2-2-2-2----2-2-2-2-2-2-2-2-|
|-0-0-0-0----0-0-0-0----2-2-2-2-2-2-2-2-|
|-2-2-2-2----0-0-0-0----0-0-0-0-0-0-0-0-|
|-3-3-3-3----x-x-x-x----0-0-0-0-0-0-0-0-|

|-3-3-3-3----2-2-2-2----0-0-0-0-0-0-0-0-|
|-0-0-0-0----3-3-3-3----2-2-2-2-2-2-2-2-|
|-0-0-0-0----2-2-2-2----2-2-2-2-2-2-2-2-|
|-0-0-0-0----0-0-0-0----2-2-2-2-2-2-2-2-|
|-2-2-2-2----0-0-0-0----0-0-0-0-0-0-0-0-|
|-3-3-3-3----x-x-x-x----0-0-0-0-0-0-0-0-|

|-3-3-3-3----2-2-2-2----0-0-0-0----2****|
|-0-0-0-0----3-3-3-3----2-2-2-2----3****|
|-0-0-0-0----2-2-2-2----2-2-2-2----4****|
|-0-0-0-0----0-0-0-0----2-2-2-2----4****|
|-2-2-2-2----0-0-0-0----0-0-0-0----2****|
|-3-3-3-3----x-x-x-x----0-0-0-0----2****|

|-0-0-0-0-0-0-0-0----3-3-3-3-3-3-3-3-|
|-0-0-0-0-0-0-0-0----0-0-0-0-0-0-0-0-|
|-1-1-1-1-1-1-1-1----0-0-0-0-0-0-0-0-|
|-2-2-2-2-2-2-2-2----0-0-0-0-0-0-0-0-|
|-2-2-2-2-2-2-2-2----2-2-2-2-2-2-2-2-|
|-0-0-0-0-0-0-0-0----3-3-3-3-3-3-3-3-|

|-////////////////////////////////|
|-xxxxxxxxxxxxxxxxxxxxxxxxxxxxxxxx|
|-xxxxxxxxxxxxxxxxxxxxxxxxxxxxxxxx|
|-xxxxxxxxxxxxxxxxxxxxxxxxxxxxxxxx|
|-xxxxxxxxxxxxxxxxxxxxxxxxxxxxxxxx|
|-xxxxxxxxxxxxxxxxxxxxxxxxxxxxxxxx|


OUTRO

|-2-2----3-3----2-2----0-0-|
|-3-3----0-0----3-3----2-2-|
|-4-4----0-0----2-2----2-2-|  x2
|-4-4----0-0----0-0----2-2-|
|-2-2----2-2----0-0----0-0-|
|-2-2----3-3----x-x----0-0-|


[INTRO]
Oh oh, oh oh..
So much for my happy ending
Oh oh, oh oh..
So much for my happy ending
Oh oh, oh oh, 

[VERSE]
Let's talk this over
It's not like we're dead
Was it something I did?
Was it something You said?
Don't leave me hanging
In a city so dead
Held up so high
On such a breakable thread

[PRE-CHORUS]
You were all the things I thought I knew
And I thought we could be

[CHORUS]
You were everything, everything that I wanted
We were meant to be, supposed to be, but we lost it
All of the memories, so close to me, just fade away
All this time you were pretending
So much for my happy ending

[INTRO]
Oh oh, oh oh, 
So much for my happy ending
Oh oh, oh oh,

[VERSE]
You've got your dumb friends
I know what they say
They tell you I'm difficult
But so are they
But they don't know me
Do they even know you?
All the things you hide from me
All the sh*t that you do

[PRE-CHORUS]
You were all the things I thought I knew
And I thought we could be

[CHORUS]
You were everything, everything that I wanted
We were meant to be, supposed to be, but we lost it
All of the memories, so close to me, just fade away
All this time you were pretending
So much for my happy ending

[BRIDGE]
It's nice to know that you were there
Thanks for acting like you cared
And making me feel like I was the only one
It's nice to know we had it all
Thanks for watching as I fall
And letting me know we were done

[CHORUS]
He was everything, everything that I wanted
We were meant to be, supposed to be, but we lost it
All of the memories, so close to me, just fade away
All this time you were pretending
So much for my happy ending

[CHORUS]
You were everything, everything that I wanted
We were meant to be, supposed to be, but we lost it
All of the memories, so close to me, just fade away
All this time you were pretending
So much for my happy ending

[OUTRO]
Oh oh, oh oh, (in background Oh oh, oh oh)
So much for my happy ending,
            
Submit corrections

comments powered by Disqus
↑ Back to top | Avril Lavigne Tabs for My Happy Ending. Lyrics for acoustic guitar and electric guitar. Tablatures and chords are parodies/interpretations of the original songs. You may use it for private study, scholarship, research or language learning purposes only