» » »

My Happy Ending Bass tabs (ver.1)

Artists:  A B C D E F G H I J K L M N O P Q R S T U V W X Y Z # 

My Happy Ending Bass tabs (ver.1)

Avril Lavigne
Rating:
0/5 (0 votes)

Hard to play? Try these video lessons and learn fast.
                Key Note: /=slide

Intro:

G----------------------------|
D----------------------------|
A--2-2---------5-5-----------|
E--------3-3---------5-5-----|

G----------------------------|
D----------------------------|
A--2-2---------5-5-----------|
E--------3-3-----------5-----|

Verse: No Bass.

Pre Chorus:

G----------------------------|
D----------------------------|
A----------------------------|
E---3------------5-----------|   2x,

Chorus:

G----------------------------|
D----------------------------|
A-------5-5------------------|
E--3-3--------5-5---5-5------|

G----------------------------|
D------------------------3-2-|
A-------5-5------------------|
E--3-3--------5-5---5--------| 

G----------------------------|
D----------------------------|
A-------5-5------------------|
E--3-3--------5-5-7----------| 

G----------------------------|
D----------------------------|
A----------------------------|
E--0000000-2-3-----------7/0-|

Intro

Verse 2:

G----------------------------------|
D----------------------------------|
A-22222222--------55555555---------|
E---------33333333--------55555555-|   2x,

Pre Chorus:

G----------------------------------|
D----------------------------------|
A----------------------------------|
E--33333333--------55555555--------|  2x,

Chorus:

G----------------------------|
D----------------------------|
A-------5-5------------------|
E--3-3--------5-5---5-5------|

G----------------------------|
D------------------------3-2-|
A-------5-5------------------|
E--3-3--------5-5---5--------| 

G----------------------------|
D----------------------------|
A-------5-5------------------|
E--3-3--------5-5-7----------| 

G----------------------------|
D----------------------------|
A----------------------------|
E--0000000-2-33333333--------|

Bridge:

G----------------------------|
D----------------------------|
A----------------------------|
E--55555555---33333333-------|  2x

G----------------------------|
D----------------------------|
A----------------------------|
E--55555555---77777777-------|

G----------------------------|
D----------------------------|
A----------------------------|
E--33333333---55555555-------|

Come in on A on the cut, then comes chorus. do the intro again and end on G.
            
Hard to play? Try these video lessons and learn fast. | Correct




comments powered by Disqus
↑ Back to top | Tablatures and chords are parodies/interpretations of the original songs. You may use it for private study, scholarship, research or language learning purposes only