» » »

Avril Lavigne, My Happy Ending Tabs (ver.1)

Artists:  A B C D E F G H I J K L M N O P Q R S T U V W X Y Z # 

My Happy Ending Tabs (ver.1)

Avril Lavigne Tabs
 Rating:
4/5 (4 votes)
My Happy Ending lessons Tabs too difficult? Try these video lessons and learn fast
                Avril Lavigne
Under my Skin

Tuning: standard

pm - plm mute
~ - Hold chord
te - tremolo effects
/ - slide
\ - slide back

Persons
Avril - guitar 1 (rhythm)
Evan  - guitar 2 (rhythm)
Craig - guitar 3 (lead)

Intro: (Turntable part)

Craig

E|-----------------------|
B|-7h8--7h8--7-----------|
G|-------------9--7p9--7-|
D|-----------------------|
A|-----------------------|
E|-----------------------|

Evan (palm mute)

E|---x--------------------|
B|---x--------------------|
G|---x--------------------|
D|--11-pm(x4)-------------|
A|--11-pm(x4)-------------|
E|--9--pm(x4)-------------|


Pre Verse: (Oh Oh So much for my happy Ending)

Avril in chords Bm - G - D/Dsus4 - A/C#

E|-2--2---x--x---2h3p2h3---0--0-----------|
B|-3--3---x--x---3---3-----2--2-----------|
G|-4--4---x--x---2---2-----2--2-----------|
D|-4--4---5--5---0---0-----2--2-----------|   (x2)
A|-2--2---5--5---x---x-----4--4-----------|
E|-x--x---3--3---x---x-----x--x-----------|

Evan in power chords Bm - G - D - A with palm mute

E|-------------------------------------------------|
B|-------------------------------------------------|
G|------------12-pm(x3)----------------------------|
D|-9----------12-pm(x3)---12-pm(x3)---7-pm(x3)-----| (x1)
A|-9----------10-pm(x3)---9--pm(x3)---7-pm(x3)-----|
E|-7-pm(x3)---------------10-pm(x3)---5-pm(x3)-----|

E|-------------------------------------------------|
B|-------------------------------------------------|
G|------------12-pm(x3)----------------------------|
D|-9----------12-pm(x3)---12-pm(x3)---7-H----------| (x1)
A|-9----------10-pm(x3)---9--pm(x3)---4-H----------|
E|-7-pm(x3)---------------10-pm(x3)---5-H----------|

Craig in power chords Bm - G - D - A with palm mute

E|-------------------------------------------------|
B|-------------------------------------------------|
G|------------12-pm(x3)----------------------------|
D|-9----------12-pm(x3)---12-pm(x3)---7-pm(x3)-----| (x1)
A|-9----------10-pm(x3)---9--pm(x3)---7-pm(x3)-----|
E|-7-pm(x3)---------------10-pm(x3)---5-pm(x3)-----|

E|-------------------------------------------------|
B|-------------------------------------3-2H--------|
G|------------12-pm(x3)----------------------------|
D|-9----------12-pm(x3)---12-pm(x3)----------------| (x1)
A|-9----------10-pm(x3)---9--pm(x3)----------------|
E|-7-pm(x3)---------------10-pm(x3)----------------|


Verse: (Let's tak this over/you've got your dumb friends)

Avril plays piano here but since this is a guitar tab,
 I convert piano keys she's pressing to my guitar plucking and it goes like this below.

       Bm          G          D         A/C#
e|----------|----------|----------|----------|
B|--0(x4)---|----------|----------|----------|
G|----------|----------|----------|----------|
D|----------|--0(x4)---|--4(x4)---|----------|  (x2)
A|--2(x4)---|----------|--5(x4)---|--4(x2)---|
E|----------|--3(x4)---|----------|--5(x2)---|

Evan and Craig are not playing except for Avril in this verse part.

Pre-Chorus 1 (You were all the things I thought I knew...)

Avril

      G          A/C#       G          A/C#       C#(pm)
e|----------|----------|----------|----------|-----------|
B|----------|----------|----------|----------|-----------|
G|----------|----------|----------|----------|-----------|
D|--0(x4)---|----------|--0(x4)---|----------|-----------|
A|----------|--4(x4)---|----------|--4(x3)---|--11pm(x4)-|
E|--3(x4)---|--5(x4)---|--3(x4)---|--5(x3)---|--9-pm(x4)-|

Evan

      G          A          G          A          C#(pm)
E|-----0----|-----0----|-----0----|-----0----|-----------|
B|---3--3---|---0--0---|---3--3---|---0------|-----------|
G|--2-2--2--|--2-2--2--|--2-2--2--|--2-2-----|-----------|
D|----------|----------|----------|----------|-----------|
A|----------|-0--------|----------|-0--------|--11pm(x3)-|
E|-3--------|----------|-3--------|----------|--9-pm(x3)-|

Craig riff pattern

e|---------------------------------------------------------|
B|---------------------------------------------------------|
G|---------------------------------------------------------|
D|---------------------------------------------------------|
A|-------------------------0---0----------2--2--0--11pm(x4)|
E|-2-3---5--3--2--0--0--2--------5--3--2-----------9-pm(x4)|


Chorus 1 (You were everything everything that I wanted...)

Avril in chords G - D - A

E|--x--x---2--2---0--0-----------|
B|--x--x---3--3---2--2-----------|
G|--x--x---2--2---2--2-----------|
D|--5--5---0--0---2--2-----------| (x2)
A|--5--5---x--x---0--0-----------|
E|--3--3---x--x---x--x-----------|


Evan in power chords G - D - A

E|--x--x---x--x---x--x-----------|
B|--x--x---x--x---x--x-----------|
G|--x--x---7--7---x--x-----------|
D|--5--5---7--7---7--7-----------| (x2)
A|--5--5---5--5---7--7-----------|
E|--3--3---x--x---5--5-----------|

Craig in this riff pattern

E|-------------------------------|
B|-------------------------------|
G|-------------------------------|
D|-4-4-4h5---4-4-4h5-------------| (x2)
A|--------5---5-5---5---4(x4)----|
E|--3-3-----------------5(x4)----|

(All of the memories so close to me just fade away)

Avril in chords G - D - A - Asus - Bm

E|--3--3---2--2---0--0---2--x------|
B|--3--3---3--3---2-/3---3--x------|
G|--0--0---2--2---2--2---4--pm(x4)-|
D|--0--0---0--0---2--2---4--pm(x4)-|
A|--2--2---x--x---0--0---2--pm(x4)-|
E|--3--3---x--x---x--x---2--x------|

Evan in power chords G - D - A - Asus - Bm

E|--x--x---x--x---x--x---x--x------|
B|--x--x---x--x---x--x---x--x------|
G|--x--x---7--7---2--7---x--x------|
D|--5--5---7--7---7--2---9--pm(x4)-|
A|--5--5---5--5---4--5---9--pm(x4)-|
E|--3--3---x--x---5--5---7--pm(x4)-|

Craig

E|----------------------------------|
B|----------------------------------|
G|----------------------------------|
D|-4-4-4h5---4-4-4h5----------------|
A|--------5---5-5---5---7(x2)--5-te-|
E|--3-3-----------------5(x2)--7-te-|

(All this time you were pretending, so much for my happy ending)

Avril in chords Em - G then hold - C#(pm)

e|--0--0--0--0---x--x--x-----x------|
B|--0--0--0--0---x--x--x-----x------|
G|--0--0--0--0---x--x--x-----x------|
D|--2--2--2--2---5--5--5~-/--11-----|
A|--2--2--2--2---5--5--5~-/--11-----|
E|--0--0--0--0---3--3--3~-/--9------|

Evan in power chords Em - G - C#(pm)

e|--x--x--x--x---x--x--x-----x------|
B|--x--x--x--x---x--x--x-----x------|
G|--9--9--9--9---x--x--x-----x------|
D|--9--9--9--9---5--5--5~-/--11-----|
A|--7--7--7--7---5--5--5~-/--11-----|
E|--0--0--0--0---3--3--3~-/--9------|

Craig

E|---------------------------------------te-----|
B|-7h8--7h8--7-------------7h8--7h8--7~--te-----|
G|-------------9--7p9--7-----------------te-----|
D|---------------------------------------te-----|
A|---------------------------------------te-----|
E|---------------------------------------te-----|

Pre-Chorus 2

Evan only while Avril and Craig doing the same as Pre-Chorus 1

      G          A          G          A
E|-----0----|-----0----|-----0----|-----0----|-9h10p9----|
B|---3--3---|---0--0---|---3--3---|---0------|-------10--|
G|--2-2--2--|--2-2--2--|--2-2--2--|--2-2-----|-----------|
D|----------|----------|----------|----------|-----------|
A|----------|-0--------|----------|-0--------|-----------|
E|-3--------|----------|-3--------|----------|-----------|

Bridge (It's nice to know that you were there, thanks for acting like you care and 
me feel like I was the only one)

Avril in chords A - G - Asus - G

e|-0--0--0--0---x--x--x--x---0--0--0--0---x--x--x--x--|
B|-2--2--2--2---x--x--x--x---3--3--3--3---x--x--x--x--|
G|-2--2--2--2---x--x--x--x---2--2--2--2---x--x--x--x--|
D|-2--2--2--2---5--5--5--5---2--2--2--2---5--5--5--5--|
A|-0--0--0--0---5--5--5--5---0--0--0--0---5--5--5--5--|
E|-x--x--x--x---3--3--3--3---x--x--x--x---3--3--3--3--|

Evan in power chords A/C# - G - Asus - G

e|-x--x--x--x---x--x--x--x---x--x--x--x---x--x--x--x-----------------|
B|-x--x--x--x---x--x--x--x---x--x--x--x---x--x--x--x-----------------|
G|-x--x--x--x---x--x--x--x---x--x--x--x---x--x--x--x-----------------|
D|-7--7--7--7---5--5--5--5---7--7--7--7---5--5--5--5-----------------|
A|-4--4--4--4---5--5--5--5---5--5--5--5---5--5--5--5-----------------|
E|-5--5--5--5---3--3--3--3---5--5--5--5---3--3--3--3---3(x4)-3p2h3/5-|

Craig's riff here

a.)

e|-5-------5--------5--------5--------|
B|--3(x3)---3(x3)----3(x3)----3(x3)---|
G|------------------------------------|
D|------------------------------------| (x3)
A|------------------------------------|
E|------------------------------------|

b.)

e|--0-0h2-0---------------------------|
B|----------3-------------------------|
G|------------------------------------|
D|------------------------------------|
A|------------------------------------|
E|-3-3----------3(x4)-3p2h3/5---------|


(It's nice to know we had it all, thanks for watching as I fall nd letting me know we 
done)

Avril in chords A - Bm - G - A/C#

e|-0--0--0--0---2--2--2--2---x--x--x--x---0--0--0--0---|
B|-2--2--2--2---3--3--3--3---x--x--x--x---2--2--2--2---|
G|-2--2--2--2---4--4--4--4---x--x--x--x---2--2--2--2---|
D|-2--2--2--2---4--4--4--4---5--5--5--5---2--2--2--2---|
A|-0--0--0--0---2--2--2--2---5--5--5--5---4--4--4--4---|
E|-x--x--x--x---x--x--x--x---3--3--3--3---x--x--x--x---|

Evan in power chords A/C# - Bm - G - A/C#

e|-x--x--x--x---x--x--x--x---x--x--x--x---x--x--x--x---|
B|-x--x--x--x---x--x--x--x---x--x--x--x---x--x--x--x---|
G|-x--x--x--x---x--x--x--x---x--x--x--x---x--x--x--x---|
D|-7--7--7--7---9--9--9--9---5--5--5--5---7--7--7--7---|
A|-4--4--4--4---9--9--9--9---5--5--5--5---4--4--4--4---|
E|-5--5--5--5---7--7--7--7---3--3--3--3---5--5--5--5---|

Craig's riff again

a.)

e|-5-------5--------5--------5--------|
B|--3(x3)---3(x3)----3(x3)----3(x3)---|
G|------------------------------------|
D|------------------------------------| (x1)
A|------------------------------------|
E|------------------------------------|

b.)

e|-10-------10-------10------10-------|
B|---10(x3)---10(x3)---10(x3)--(x3)---|
G|------------------------------------|
D|------------------------------------| (x2)
A|------------------------------------|
E|------------------------------------|

c.)

e|-12-12\9~------|
B|---------------|
G|---------------|
D|---------------|
A|---------------|
E|---------------|

Chorus 2 (He was Everything Everything tht I wanted)

Avril (Let Ring) In chords G-D-A/C#

e|-2---2---0~--te------|
B|-3---3---2~--te------|
G|-0---2---2~--te------|
D|-0---0---2~--te------|
A|-2---x---4~--te------|
E|-3---x---x~--te------|

then distortion for Evan and Craig both

e|---------------|
B|---------------|
G|---------------|
D|-7--7--7H-te---|
A|-4--4--4H-te---|
E|-5--5--5H-te---|

(We were meant to be supposed to be but we lost it)

Avril in chords G - D - A

E|--x--x---2--2---0--0-----------|
B|--x--x---3--3---2--2-----------|
G|--x--x---2--2---2--2-----------|
D|--5--5---0--0---2--2-----------| (x2)
A|--5--5---x--x---0--0-----------|
E|--3--3---x--x---x--x-----------|


Evan in power chords G - D - A

E|--x--x---x--x---x--x-----------|
B|--x--x---x--x---x--x-----------|
G|--x--x---7--7---x--x-----------|
D|--5--5---7--7---7--7-----------| (x2)
A|--5--5---5--5---7--7-----------|
E|--3--3---x--x---5--5-----------|

Craig in this riff pattern

E|-------------------------------|
B|-------------------------------|
G|-------------------------------|
D|-4-4-4h5---4-4-4h5-------------| (x2)
A|--------5---5-5---5---4(x4)----|
E|--3-3-----------------5(x4)----|

(All of the memories so close to me just fade away)

Avril in chords G - D - A - Asus - Bm

E|--3--3---2--2---0--0---2--x------|
B|--3--3---3--3---2-/3---3--x------|
G|--0--0---2--2---2--2---4--pm(x4)-|
D|--0--0---0--0---2--2---4--pm(x4)-|
A|--2--2---x--x---0--0---2--pm(x4)-|
E|--3--3---x--x---x--x---2--x------|

Evan in power chords G - D - A - Asus - Bm

E|--x--x---x--x---x--x---x--x------|
B|--x--x---x--x---x--x---x--x------|
G|--x--x---7--7---2--7---x--x------|
D|--5--5---7--7---7--2---9--pm(x4)-|
A|--5--5---5--5---4--5---9--pm(x4)-|
E|--3--3---x--x---5--5---7--pm(x4)-|

Craig

E|----------------------------------|
B|----------------------------------|
G|----------------------------------|
D|-4-4-4h5---4-4-4h5----------------|
A|--------5---5-5---5---7(x2)--5-te-|
E|--3-3-----------------5(x2)--7-te-|

(All this time you were pretending, so much for my happy ending)

Avril in chords Em - G then hold - C#(pm)

e|--0--0--0--0---x--x--x-----x------|
B|--0--0--0--0---x--x--x-----x------|
G|--0--0--0--0---x--x--x-----x------|
D|--2--2--2--2---5--5--5~-/--11-----|
A|--2--2--2--2---5--5--5~-/--11-----|
E|--0--0--0--0---3--3--3~-/--9------|

Evan in power chords Em - G - C#(pm)

e|--x--x--x--x---x--x--x-----x------|
B|--x--x--x--x---x--x--x-----x------|
G|--9--9--9--9---x--x--x-----x------|
D|--9--9--9--9---5--5--5~-/--11-----|
A|--7--7--7--7---5--5--5~-/--11-----|
E|--0--0--0--0---3--3--3~-/--9------|

Craig

E|---------------------------------------te-----|
B|-7h8--7h8--7-------------7h8--7h8--7~--te-----|
G|-------------9--7p9--7-----------------te-----|
D|---------------------------------------te-----|
A|---------------------------------------te-----|
E|---------------------------------------te-----|

Outro

Avril

E|-2-------|
B|---3-----|
G|-----4---| x4
D|-------4-|
A|---------|
E|---------|

SONG ORDER
Intro
Pre-Verse
Verse
Pre Chorus 1
Chorus 1
Pre-Verse
Verse Pre Chorus 2
Chorus 1
Bridge
Chorus 2
Chorus 1
Pre-Verse (x3)

Enjoy this tab is 100% corect to me because I already got an electric
guitar then I tabbed it sounds very corect, if ever there's a mistake
it is just a little and you have the right to corect and e-mail me
if you want more tbs from my Avril.
            
Submit corrections

comments powered by Disqus
↑ Back to top | Avril Lavigne Tabs for My Happy Ending. Lyrics for acoustic guitar and electric guitar. Tablatures and chords are parodies/interpretations of the original songs. You may use it for private study, scholarship, research or language learning purposes only