>
 >
Im With You 2

Im With You 2 Bass Tabs

Avril Lavigne - Im With You 2 chords, tabs, tablatures, lyrics

Guitar lessons | Add/correct | Request | Top 50 tabs Artists:  A B C D E F G H I J K L M N O P Q R S T U V W X Y Z 0-9

Im With You 2 Bass Tabs – Avril Lavigne

CD, Sheet music, Poster

Do you like Im With You 2? Share with your friends now
Bass TabsBass Tabs v2Ukulele
-------------------------------------------------------------------------------
			     I'm With You - Avril Lavigne
-------------------------------------------------------------------------------


I followed the strings through most of this, so if you want to simplify it, you can
just leave out the fills. This tab is almost perfect. I didn't include any timings or
rhythms, only the notes played, but you can figure out the timing and rhythm.

Tuning:DADG

  Intro
G|-------------------------------------16---18----------------16--18-------|
D|--7--9---12----7--9---12----12---14-----------12----12--14----------12---|
A|-------------------------------------------------------------------------|
D|-------------------------------------------------------------------------|

		 | Verse 1
G|-12-13---------|----------------------------------------------------------|
D|--------12---9-|----------------------------------------------------------|
A|---------------|--9----5----9----5----5--4--------------------------------|
D|---------------|----------------------------7--4----0----4----0-----------|

 | Pre-Chorus				     | Chorus 
G|-------------------------------------------|------------------------------|
D|----12/14--12--11--------------------------|------------------------------|
A|7------------------14--12--11----9--11--12-|--0--2--5----0--2--5---0--2--5|
D|-------------------------------------------|------------------------------|
			       | Verse 2
G|-----------------------------|--------------------------------------------|
D|-----------------------------|-------7----4-------------------------------|
A|------------9----5----9----5-|--9--------------7--5--4--5--4--------------|
D|-4--2--0---------------------|--------------------------------7--4----0---|

	     | Pre-Chorus
G|-----------|-9--7--6------------------------------------------------------|
D|-----------|----------9------12/14--12--11--------------------------------|
A|-----------|-------------7------------------14--12--11----9--11--12-------|
D|--4----0---|--------------------------------------------------------------|


G|--------------------------------------------------------------------------|
D|--------------------------------------------------------------------------|
A|-0--2--5----0--2--5----0--2--5---------------9----5----9----5-------------|
D|----------------------------------4--2--0---------------------------------|

 | Bridge				     | Chorus
G|-------------------------------------------|------------------------------|
D|------9---------9--------------------------|------------------------------|
A|-7---------7---------7----5----4----5-7----|-0--2--5----0--2--5----0--2--5|
D|-------------------------------------------|-------------------------------


G|--------------------------------------------------------------------------|
D|--------------------------------------------------------------------------|
A|------------0--2--5----0--2--5----0--2--5---------------0--2--5----0--2--5|
D|-4--2--0--------------------------------------4--2--0---------------------|

G|--------------------------------------------------------------------------|
D|--------------------------------------------------------------------------|
A|-0--2--5---------------9----5----9----5-----------------------------------|
D|------------4--2--0-------------------------------------------------------|


| /  slide up
| \  slide down
| h  hammer-on
| p  pull-off
| ~  vibrato
| +  harmonic
| x  Mute note
=============================================================================





Comments


Popular Avril Lavigne tabs & chords
Freak Out Bass Tabs
Nobodys Home Bass Tabs
Alone Chords
How Does It Feel Chords
Keep Holding On 6 Chords
Nobodys Home 6 Chords
Girlfriend 1 Tabs
Remember When Tabs
Together Tabs
Mobile Ukulele


Song lyrics



↑ Back to top | Tablatures and chords are parodies/interpretations of the original songs. You may use it for private study, scholarship, research or language learning purposes only
© 2014 AZChords.com Contact us | Privacy policy | DMCA | Add/correct tabs | Request tabs | Top 50 tabs