» » »

I'm With You Bass tabs (ver.1)

Artists:  A B C D E F G H I J K L M N O P Q R S T U V W X Y Z # 

I'm With You Bass tabs (ver.1)

Avril Lavigne
Rating:
0/5 (0 votes)

Hard to play? Try these video lessons and learn fast.
                Verse:
G|--------------------------|
D|--------------------------|
A|----0-0---5-5---0-0---5-5-|
E|-2-2---2-2---2-2---2-2----|

Pre-chorus:
G|---------------|
D|-2-2-0-0-2-2-0-|
A|---------------|
E|---------------|

Chorus:
G|------------------------------------|
D|----0---0---0-----------------------|
A|-0-2-0-2-0-2-4-2-0--4-4-4-4-0-0-0-0-|
E|------------------------------------|

Bridge:			x2
G|-------------------------|----------------------|
D|-2-2-2-2-2-2-0-0-0-0-0-0-|------------2-2-2-2-2-|
A|-------------------------|-4-4-4-4-4-4----------|
E|-------------------------|----------------------|
            
Hard to play? Try these video lessons and learn fast. | Correct




comments powered by Disqus
↑ Back to top | Tablatures and chords are parodies/interpretations of the original songs. You may use it for private study, scholarship, research or language learning purposes only