>
 >
I'm With You

I'm With You Guitar Tabs

Avril Lavigne - I'm With You chords, tabs, tablatures, lyrics

Guitar lessons | Add/correct | Request | Top 50 tabs Artists:  A B C D E F G H I J K L M N O P Q R S T U V W X Y Z 0-9

I'm With You Guitar Tabs – Avril Lavigne

CD, Sheet music, Poster

Do you like I'm With You? Share with your friends now
Bass TabsChordsTabsTabs v2Tabs v3

This song really isn't that long but I wrote everything 
just so you can know the order of the lead guitar parts.

Guitar 1 is the electric-acoustic
Guitar 2 is the electric

Intro
Guitar 1
   Asus2     Bm        Dsus2
e--0--0--0---2--2--2---0--0--0---0--0--0--|
B--0--0--0---3--3--3---3--3--3---3--3--3--|
G--2--2--2---4--3--4---2--2--2---2--2--2--|
D--2--2--2---4--4--4---0--0--0---0--0--0--|
A--0--0--0---2--2--2----------------------|
E-----------------------------------------|
Guitar 2
   Asus2    Bm         Dsus2
e-----------------------------------------|
B-----------------------------------------|
G------------------------------6b~--------|
D-----------------------------------------|
A-----------------------------------------|
E-----------------------------------------|

Guitar 1
   Asus2     Bm        Dsus2
e--0--0--0---2--2--2---0--0--0---0--0--0--|
B--0--0--0---3--3--3---3--3--3---3--3--3--|
G--2--2--2---4--3--4---2--2--2---2--2--2--|
D--2--2--2---4--4--4---0--0--0---0--0--0--|
A--0--0--0---2--2--2----------------------|
E-----------------------------------------|
Guitar 2
   Asus2    Bm         Dsus2
e------------------------------------------|
B------------------------------------------|
G------------------------------6b-4-6~-----|
D------------------------------------------|
A------------------------------------------|
E------------------------------------------|

Guitar 1
   Asus2     Bm        Dsus2
e--0--0--0---2--2--2---0--0--0---0--0--0--|
B--0--0--0---3--3--3---3--3--3---3--3--3--|
G--2--2--2---4--3--4---2--2--2---2--2--2--|
D--2--2--2---4--4--4---0--0--0---0--0--0--|
A--0--0--0---2--2--2----------------------|
E-----------------------------------------|
Guitar 2
   Asus2    Bm         Dsus2
e-----------------------------------------|
B-----------------------------------------|
G------------------------------6/9~-------|
D-----------------------------------------|
A-----------------------------------------|
E-----------------------------------------|

Guitar 1
   Asus2     Bm        Dsus2
e--0--0--0---2--2--2---0--0--0---0--0--0--|
B--0--0--0---3--3--3---3--3--3---3--3--3--|
G--2--2--2---4--3--4---2--2--2---2--2--2--|
D--2--2--2---4--4--4---0--0--0---0--0--0--|
A--0--0--0---2--2--2----------------------|
E-----------------------------------------|
Guitar 2
   Asus2    Bm         Dsus2
e------------------------------------9-------|
B----------------------------------------|
G--------------------------------------------|
D-----------------------------------------|
A--------------------------------------------|
E--------------------------------------------|

Verse 1
Guitar 1
   F#m                          Dsus2
e--2-----2--2--2--2---2--2--2|--0-----0--0--0--0----0--0--0--|
B--2-----2--2--2--2---2--2--2|--3-----3--3--3--3----3--3--3--|
G--2-----2--2--2--2---2--2--2|--2-----2--2--2--2----2--2--2--|
D--4-----4--4--4--4---4--4--4|--0-----0--0--0--0----0--0--0--|
A--4-----4--4--4--4---4--4--4|-------------------------------|
E--2-----2--2--2--2---2--2--2|-------------------------------|
Guitar 2
e----------------------------|--------------------------------|
B----------------------------|--------------------------------|
G----------------------------|--------------------------------|
D----------------------------|--------------------------------|
A----------------------------|--------------------------------|
E----------------------------|--------------------------------|

Guitar 1
   F#m                          Dsus2
e--2-----2--2--2--2---2--2--2|--0-----0--0--0--0----0--0--0--|
B--2-----2--2--2--2---2--2--2|--3-----3--3--3--3----3--3--3--|
G--2-----2--2--2--2---2--2--2|--2-----2--2--2--2----2--2--2--|
D--4-----4--4--4--4---4--4--4|--0-----0--0--0--0----0--0--0--|
A--4-----4--4--4--4---4--4--4|-------------------------------|
E--2-----2--2--2--2---2--2--2|-------------------------------|
Guitar 2
e----------------------------|-----------------------------|
B----------------------------|---------------------------------|
G----------------------------|---------------------------------|
D----------------------------|---------------------------------|
A----------------------------|---------------------------------|
E----------------------------|---------------------------------|

Guitar 1
   F#m                          Dsus2
e--2-----2--2--2--2---2--2--2|--0-----0--0--0--0----0--0--0--|
B--2-----2--2--2--2---2--2--2|--3-----3--3--3--3----3--3--3--|
G--2-----2--2--2--2---2--2--2|--2-----2--2--2--2----2--2--2--|
D--4-----4--4--4--4---4--4--4|--0-----0--0--0--0----0--0--0--|
A--4-----4--4--4--4---4--4--4|-------------------------------|
E--2-----2--2--2--2---2--2--2|-------------------------------|
Guitar 2
e----------------------------|----------------------------------|
B----------------------------|----------------------------------|
G----------------------------|-------------------6b~------------|
D----------------------------|----------------------------------|
A----------------------------|----------------------------------|
E----------------------------|----------------------------------|

Guitar 1
   F#m                          Dsus2
e--2-----2--2--2--2---2--2--2|--0-----0--0--0--0----0--0--0~--|
B--2-----2--2--2--2---2--2--2|--3-----3--3--3--3----3--3--3~--|
G--2-----2--2--2--2---2--2--2|--2-----2--2--2--2----2--2--2~--|
D--4-----4--4--4--4---4--4--4|--0-----0--0--0--0----0--0--0~--|
A--4-----4--4--4--4---4--4--4|--------------------------------|
E--2-----2--2--2--2---2--2--2|--------------------------------|
Guitar 2
e----------------------------|------------------------------------|
B----------------------------|------------------------------------|
G----------------------------|-------------------6b~--------(2)---|
D----------------------------|------------------------------------|
A----------------------------|------------------------------------|
E----------------------------|------------------------------------|

Guitar 1
   Bm                           Dsus2
e--2-----2--2--2--2---2--2--2|--0-----0--0--0--0----0--0--0--|
B--3-----3--3--3--3---3--3--3|--3-----3--3--3--3----3--3--3--|
G--4-----4--4--4--4---4--4--4|--2-----2--2--2--2----2--2--2--|
D--4-----4--4--4--4---4--4--4|--0-----0--0--0--0----0--0--0--|
A--2-----2--2--2--2---2--2--2|-------------------------------|
E----------------------------|-------------------------------|
Guitar 2
e----------------------------|-------------------------------------|
B----------------------------|--------5-----3-----2----------------|
G----------------------------|-------------------------4----2------|
D----------------------------|--2----------------------------------|
A----------------------------|-------------------------------------|
E----------------------------|-------------------------------------|

Guitar 1
   Bm                           Dsus2
e--2-----2--2--2--2---2--2--2|--0~--|
B--3-----3--3--3--3---3--3--3|--3~--|
G--4-----4--4--4--4---4--4--4|--2~--|
D--4-----4--4--4--4---4--4--4|--0~--|
A--2-----2--2--2--2---2--2--2|------|
E----------------------------|------|
Guitar 2
e-----------------------------|--0~--|
B-----------------------------|--3~--|
G--1~-------------------------|--2~--|
D----------------------4-----2|--0~--|
A-----------------------------|------|
E-----------------------------|------|

Chorus
Guitar 1
   A         Bm        D
e--0--0--0---2--2--2---2--2--2---2--2--2--|
B--2--2--2---3--3--3---3--3--3---3--3--3--|
G--2--2--2---4--3--4---2--2--2---2--2--2--|
D--2--2--2---4--4--4---0--0--0---0--0--0--|
A--0--0--0---2--2--2----------------------|
E-----------------------------------------|
Guitar 2                                     x3
   A         Bm        Dsus2   |Only the first 2 times
e--5~--------7~--------5~------|-/11~------|
B--5~--------7~--------5~------|---x~------|
G--6~--------7~--------7~------|-/-9~------|
D--7~--------9~--------7~------|-----------|
A--7~--------9~--------5~------|-----------|
E--5~--------7~----------------|-----------|

Guitar 1
   F#m       E               D
e--2--2--2---0--0--0--0--0---2--2--2--2--2-|
B--2--2--2---0--0--0--0--0---3--3--3--3--3-|
G--2--2--2---1--1--1--1--1---2--2--2--2--2-|
D--4--4--4---2--2--2--2--2---0--0--0--0--0-|
A--4--4--4---2--2--2--2--2-----------------|
E--2--2--2---0--0--0--0--0-----------------|
Guitar 2
   F#m       E               Dsus2
e---9~-------7~--------------5~------------|
B--10~-------9~--------------5~------------|
G--11~-------9~--------------7~------------|
A--11~-------9~--------------7~------------|
D---9~-------7~--------------5~------------|

Part After Chorus
Guitar 1
   F#m                          Dsus2
e--2-----2--2--2--2---2--2--2|--0-----0--0--0--0----0--0--0--|
B--2-----2--2--2--2---2--2--2|--3-----3--3--3--3----3--3--3--|
G--2-----2--2--2--2---2--2--2|--2-----2--2--2--2----2--2--2--|
D--4-----4--4--4--4---4--4--4|--0-----0--0--0--0----0--0--0--|
A--4-----4--4--4--4---4--4--4|-------------------------------|
E--2-----2--2--2--2---2--2--2|-------------------------------|
Guitar 2
e----------------------------|----------------------------------|
B--10~-----------------------|--9-------------------------------|
G----------------------------|-----9~---------------------------|
D----------------------------|----------------------------------|
A----------------------------|----------------------------------|
E----------------------------|----------------------------------|

Guitar 1
   F#m                          Dsus2
e--2-----2--2--2--2---2--2--2|--0-----0--0--0--0----0--0--0--|
B--2-----2--2--2--2---2--2--2|--3-----3--3--3--3----3--3--3--|
G--2-----2--2--2--2---2--2--2|--2-----2--2--2--2----2--2--2--|
D--4-----4--4--4--4---4--4--4|--0-----0--0--0--0----0--0--0--|
A--4-----4--4--4--4---4--4--4|-------------------------------|
E--2-----2--2--2--2---2--2--2|-------------------------------|
Guitar 2
e------9~--------------------|----------------------------------|
B--10~-----------------------|--9-------------------------------|
G----------------------------|-----9~---------------------------|
D----------------------------|----------------------------------|
A----------------------------|----------------------------------|
E----------------------------|----------------------------------|

Verse 2
Guitar 1
   F#m                          Dsus2
e--2-----2--2--2--2---2--2--2|--0-----0--0--0--0----0--0--0--|
B--2-----2--2--2--2---2--2--2|--3-----3--3--3--3----3--3--3--|
G--2-----2--2--2--2---2--2--2|--2-----2--2--2--2----2--2--2--|
D--4-----4--4--4--4---4--4--4|--0-----0--0--0--0----0--0--0--|
A--4-----4--4--4--4---4--4--4|-------------------------------|
E--2-----2--2--2--2---2--2--2|-------------------------------|
Guitar 2 (All Palm Muted)                                      x4 with bass fills in background
   F#5                          D5
e----------------------------|-------------------------------|
B----------------------------|-------------------------------|
G----------------------------|-------------------------------|
D----------------------------|--7-----7--7--7--7----7--7--7--|
A--4-----4--4--4--4---4--4--4|--5-----5--5--5--5----5--5--5--|
E--2-----2--2--2--2---2--2--2|-------------------------------|

Guitar 1
   Bm                           Dsus2
e--2-----2--2--2--2---2--2--2|--0-----0--0--0--0----0--0--0--|
B--3-----3--3--3--3---3--3--3|--3-----3--3--3--3----3--3--3--|
G--4-----4--4--4--4---4--4--4|--2-----2--2--2--2----2--2--2--|
D--4-----4--4--4--4---4--4--4|--0-----0--0--0--0----0--0--0--|
A--2-----2--2--2--2---2--2--2|-------------------------------|
E----------------------------|-------------------------------|
Guitar 2
e----------------------------|-------------------------------------|
B----------------------------|--------5-----3-----2----------------|
G----------------------------|-------------------------4----2------|
D----------------------------|--2----------------------------------|
A----------------------------|-------------------------------------|
E----------------------------|-------------------------------------|

Guitar 1
   Bm                           Dsus2
e--2-----2--2--2--2---2--2--2|--0~--|
B--3-----3--3--3--3---3--3--3|--3~--|
G--4-----4--4--4--4---4--4--4|--2~--|
D--4-----4--4--4--4---4--4--4|--0~--|
A--2-----2--2--2--2---2--2--2|------|
E----------------------------|------|
Guitar 2
e-----------------------------|--0~--|
B-----------------------------|--3~--|
G--1~-------------------------|--2~--|
D----------------------4-----2|--0~--|
A-----------------------------|------|
E-----------------------------|------|

Chorus
Guitar 1
   A         Bm        D
e--0--0--0---2--2--2---2--2--2---2--2--2--|
B--2--2--2---3--3--3---3--3--3---3--3--3--|
G--2--2--2---4--3--4---2--2--2---2--2--2--|
D--2--2--2---4--4--4---0--0--0---0--0--0--|
A--0--0--0---2--2--2----------------------|
E-----------------------------------------|
Guitar 2                                     x3
   A         Bm        Dsus2   |Only the first 2 times
e--5~--------7~--------5~------|-/11~------|
B--5~--------7~--------5~------|---x~------|
G--6~--------7~--------7~------|-/-9~------|
D--7~--------9~--------7~------|-----------|
A--7~--------9~--------5~------|-----------|
E--5~--------7~----------------|-----------|

Guitar 1
   F#m       E               D
e--2--2--2---0--0--0--0--0---2--2--2--2--2-|
B--2--2--2---0--0--0--0--0---3--3--3--3--3-|
G--2--2--2---1--1--1--1--1---2--2--2--2--2-|
D--4--4--4---2--2--2--2--2---0--0--0--0--0-|
A--4--4--4---2--2--2--2--2-----------------|
E--2--2--2---0--0--0--0--0-----------------|
Guitar 2
   F#m       E               Dsus2
e---9~-------7~--------------5~------------|
B--10~-------9~--------------5~------------|
G--11~-------9~--------------7~------------|
A--11~-------9~--------------7~------------|
D---9~-------7~--------------5~------------|

Part After Chorus
Guitar 1
   F#m                          Dsus2
e--2-----2--2--2--2---2--2--2|--0-----0--0--0--0----0--0--0--|
B--2-----2--2--2--2---2--2--2|--3-----3--3--3--3----3--3--3--|
G--2-----2--2--2--2---2--2--2|--2-----2--2--2--2----2--2--2--|
D--4-----4--4--4--4---4--4--4|--0-----0--0--0--0----0--0--0--|
A--4-----4--4--4--4---4--4--4|-------------------------------|
E--2-----2--2--2--2---2--2--2|-------------------------------|
Guitar 2
e----------------------------|----------------------------------|
B--10~-----------------------|--9-------------------------------|
G----------------------------|-----9~---------------------------|
D----------------------------|----------------------------------|
A----------------------------|----------------------------------|
E----------------------------|----------------------------------|

Guitar 1
   F#m                          Dsus2
e--2-----2--2--2--2---2--2--2|--0-----0--0--0--0----0--0--0--|
B--2-----2--2--2--2---2--2--2|--3-----3--3--3--3----3--3--3--|
G--2-----2--2--2--2---2--2--2|--2-----2--2--2--2----2--2--2--|
D--4-----4--4--4--4---4--4--4|--0-----0--0--0--0----0--0--0--|
A--4-----4--4--4--4---4--4--4|-------------------------------|
E--2-----2--2--2--2---2--2--2|-------------------------------|
Guitar 2
e------9~--------------------|----------------------------------|
B--10~-----------------------|--9-------------------------------|
G----------------------------|-----9~---------------------------|
D----------------------------|----------------------------------|
A----------------------------|----------------------------------|
E----------------------------|----------------------------------|

Bridge
Both Guitars
   E                   Bm
e--0--0--0---0--0--0---2--2--2---2--2--2-|
B--0--0--0---0--0--0---3--3--3---3--3--3-|
G--1--1--1---1--1--1---4--4--4---4--4--4-|
D--2--2--2---2--2--2---4--4--4---4--4--4-|
A--2--2--2---2--2--2---2--2--2---2--2--2-|
E--0--0--0---0--0--0---------------------| x2

   E                   D                   C#m                 E
e--0--0--0---0--0--0---2--2--2---2--2--2-|-4--4--4---4--4--4---7--7--7---7--9--7-|
B--0--0--0---0--0--0---3--3--3---3--3--3-|-5--5--5---5--5--5---9--9--9---9--9--9-|
G--1--1--1---1--1--1---2--2--2---2--2--2-|-6--6--6---6--6--6---9--9--9---9--9--9-|
D--2--2--2---2--2--2---0--0--0---0--0--0-|-6--6--6---6--6--6---9--9--9---9--9--9-|
A--2--2--2---2--2--2---------------------|-4--4--4---4--4--4---7--7--7---7--7--7-|
E--0--0--0---0--0--0---------------------|---------------------------------------|

Part After (Only Guitar 1)
Guitar 1
   A         Bm        D
e--0--0--0---2--2--2---2--2--2---2--2--2--|
B--2--2--2---3--3--3---3--3--3---3--3--3--|
G--2--2--2---4--3--4---2--2--2---2--2--2--|
D--2--2--2---4--4--4---0--0--0---0--0--0--|
A--0--0--0---2--2--2----------------------|
E-----------------------------------------| x3

   F#m       E               D
e--2--2--2---0--0--0--0--0---2--2--2--2--2-|
B--2--2--2---0--0--0--0--0---3--3--3--3--3-|
G--2--2--2---1--1--1--1--1---2--2--2--2--2-|
D--4--4--4---2--2--2--2--2---0--0--0--0--0-|
A--4--4--4---2--2--2--2--2-----------------|
E--2--2--2---0--0--0--0--0-----------------|

Chorus x2
Guitar 1
   A         Bm        D
e--0--0--0---2--2--2---2--2--2---2--2--2--|
B--2--2--2---3--3--3---3--3--3---3--3--3--|
G--2--2--2---4--3--4---2--2--2---2--2--2--|
D--2--2--2---4--4--4---0--0--0---0--0--0--|
A--0--0--0---2--2--2----------------------|
E-----------------------------------------|
Guitar 2                                     x3
   A         Bm        Dsus2   |Only the first 2 times
e--5~--------7~--------5~------|-/11~------|
B--5~--------7~--------5~------|---x~------|
G--6~--------7~--------7~------|-/-9~------|
D--7~--------9~--------7~------|-----------|
A--7~--------9~--------5~------|-----------|
E--5~--------7~----------------|-----------|

Guitar 1
   F#m       E               D
e--2--2--2---0--0--0--0--0---2--2--2--2--2-|
B--2--2--2---0--0--0--0--0---3--3--3--3--3-|
G--2--2--2---1--1--1--1--1---2--2--2--2--2-|
D--4--4--4---2--2--2--2--2---0--0--0--0--0-|
A--4--4--4---2--2--2--2--2-----------------|
E--2--2--2---0--0--0--0--0-----------------|
Guitar 2
   F#m       E               Dsus2
e---9~-------7~--------------5~------------|
B--10~-------9~--------------5~------------|
G--11~-------9~--------------7~------------|
A--11~-------9~--------------7~------------|
D---9~-------7~--------------5~------------|

Last Verse
Guitar 1
   F#m                          Dsus2
e--2-----2--2--2--2---2--2--2|--0-----0--0--0--0----0--0--0--|
B--2-----2--2--2--2---2--2--2|--3-----3--3--3--3----3--3--3--|
G--2-----2--2--2--2---2--2--2|--2-----2--2--2--2----2--2--2--|
D--4-----4--4--4--4---4--4--4|--0-----0--0--0--0----0--0--0--|
A--4-----4--4--4--4---4--4--4|-------------------------------|
E--2-----2--2--2--2---2--2--2|-------------------------------|
Guitar 2
e----------------------------|--------------------------------|
B----------------------------|--------------------------------|
G----------------------------|--------------------------------|
D----------------------------|--------------------------------|
A----------------------------|--------------------------------|
E----------------------------|--------------------------------|

Guitar 1
   F#m                          Dsus2
e--2-----2--2--2--2---2--2--2|--0-----0--0--0--0----0--0--0--|
B--2-----2--2--2--2---2--2--2|--3-----3--3--3--3----3--3--3--|
G--2-----2--2--2--2---2--2--2|--2-----2--2--2--2----2--2--2--|
D--4-----4--4--4--4---4--4--4|--0-----0--0--0--0----0--0--0--|
A--4-----4--4--4--4---4--4--4|-------------------------------|
E--2-----2--2--2--2---2--2--2|-------------------------------|
Guitar 2
e----------------------------|----------------------------------|
B----------------------------|----------------------------------|
G----------------------------|-------------------6b~------------|
D----------------------------|----------------------------------|
A----------------------------|----------------------------------|
E----------------------------|----------------------------------|

Guitar 1
e--0~--|
B--2~--|
G--2~--|
D--2~--|
A--0~--|
E-----|
Guitar 2
e------|
B------|
G--2~--|
D------|
A------|
E------|





Comments


Popular Avril Lavigne tabs & chords
My World Bass Tabs
Things I'll Never Say Bass Tabs
Everything Back But You Chords
Everything Back But You 1 Chords
How Does It Feel 2 Chords
Knocking On Heaven's Door Chords
Losing Grip Chords
Smile 6 Chords
Why 4 Chords
Wish You Were Here Ukulele


Song lyrics



↑ Back to top | Tablatures and chords are parodies/interpretations of the original songs. You may use it for private study, scholarship, research or language learning purposes only
© 2014 AZChords.com Contact us | Privacy policy | DMCA | Add/correct tabs | Request tabs | Top 50 tabs