» » »

Avril Lavigne, Everything Back But You Tabs (ver.2)

Artists:  A B C D E F G H I J K L M N O P Q R S T U V W X Y Z # 

Everything Back But You Tabs (ver.2)

Avril Lavigne Tabs
 Rating:
4/5 (4 votes)
Everything Back But You lessons Tabs too difficult? Try these video lessons and learn fast
                Avril Lavigne “Everything Back But You”

Standard Tuning

This song has a VERY fast tempo!

Intro

Lead Guitar

e|--4--------|--4--------|--4--------|5-4---5-4--|
B|----5-7-5--|----5-7-5--|----5-7-5--|----5-----5|
G|4---------6|4---------6|4---------6|-----------|
D|-----------|-----------|-----------|-----------|   2X
A|-----------|-----------|-----------|-----------|
E|-----------|-----------|-----------|-----------|

Rhythm Guitar (strum each chord with a n n n v n n v n n v n strum)

e|---x---|---x---|---x---|---x---|
B|---x---|---x---|---x---|---x---|
G|---x---|---x---|---2---|---4---|
D|---2---|---4---|---2---|---4---|  2x in sync with lead guitar intro
A|---2---|---4---|---0---|---2---|
E|---0---|---2---|---x---|---x---|
      E5      F#5     A5       B5




1st Verse

N/C
Today was the worst day I went through hell
I wish I could remove it from my mind
Two months away from you but I couldn't tell
I thought that everything was gonna be just fine


Pre-Chorus
    C#5                              A5
The postcard that you wrote with the stupid little note
E5                           B5
Something wasn't quite right about it
   C#5                
It smelled like cheap perfume
            



			    e|0--|
			    B|-0-|  (play after "you")
       A5                   G|--1|
And it didnt smell like you
E5                          B5
There is no way you can get around it
A5
Because you wrote



Refrain

  E5
I wish you were her
    F#5
You left out the 'E'
    A5
You left without me
    B5
And now you're somewhere out there
       E5
With a b**ch, sl*t, psycho babe
  F#5
I hate you, why are guys so lame
     A5
Everything I gave you
       B5
I want everything back but you


PLAY INTRO ONCE!!!


N/C
My friends tried to tell me all along
That you weren't the right one for me
My friends tried to tell me to be strong
I bet you didnt think that I would see


Pre-Chorus

Refrain

Solo

e|0-0-0-0---------0-0-0-0-2-2-2-2-0-0-0-0---------0-0-0-0-2-2-2-2|
B|--------4-4-4-4-------------------------4-4-4-4----------------|
G|---------------------------------------------------------------|
D|---------------------------------------------------------------|
A|---------------------------------------------------------------|
E|---------------------------------------------------------------|

|0-0-0-0------------------------------------------------|
|--------4-4-4-4-2-2-2-2-0-0-0-0-----------------0-0-0-0|
|--------------------------------2-2-2-2-1-1-1-1--------|
|-------------------------------------------------------|
|-------------------------------------------------------|
|-------------------------------------------------------|

|12-12-12-12-11-11-11-11-12-12-12-12-14-14-14-14|
|-----------------------------------------------|
|-----------------------------------------------|
|-----------------------------------------------| 2X
|-----------------------------------------------|
|-----------------------------------------------|

|12-12-12-12-11-11-11-11------------------------------------|
|------------------------14-14-14-14-12-12-12-12-10-10-10-10|
|-----------------------------------------------------------|
|-----------------------------------------------------------|
|-----------------------------------------------------------|
|-----------------------------------------------------------|

|-------------------------------|
|-------------------------------|
|13-13-13-13-11-11-11-11-9-9-9-9|
|-------------------------------|
|-------------------------------|
|-------------------------------|



Pre-Chorus 

(play VERY softly)

Refrain

(no guitar until “b**ch, sl*t, psycho babe”)

Refrain

Song ends on an E5
            
Submit corrections

comments powered by Disqus
↑ Back to top | Avril Lavigne Tabs for Everything Back But You. Lyrics for acoustic guitar and electric guitar. Tablatures and chords are parodies/interpretations of the original songs. You may use it for private study, scholarship, research or language learning purposes only