» » »

Avril Lavigne, Everything Back But You Tabs (ver.3)

Artists:  A B C D E F G H I J K L M N O P Q R S T U V W X Y Z # 

Everything Back But You Tabs (ver.3)

Avril Lavigne Tabs
 Rating:
4/5 (4 votes)
Everything Back But You lessons Tabs too difficult? Try these video lessons and learn fast
1
                Tuning: standard tuning

This is a really cool song.I think its definately the best on the whole album. To get 
right rhythm, you need to actually listen to the song and then you'll know how to play it.


| | --------------------------------------------------------------
| |                          INTRO
| | --------------------------------------------------------------

Guitar 1 & 2
(PICKSLIDES)

Guitar 1 (lead)
|---4--0--2--0---| --- 4- 0-2-0-- |---4--0--2—0---|-5 -4 -0- 5- 4- 0-|
|-0------------2-| -0-----------2-|-0-----------0-|------------------|
|----------------| ---------------|---------------|------------------|
|----------------| ---------------|---------------|------------------|
|----------------| ---------------|---------------|------------------|
|----------------| ---------------|---------------|------------------|

|---4--0--2--0---| --- 4- 0-2-0-- |---4--0--2—0---|-5 -4 -0- 5- 4-----|
|-0------------2-| -0-----------2-|-0-----------0-|-------------- 4-5-|
|----------------| ---------------|---------------|-------------------|
|----------------| ---------------|---------------|-------------------|
|----------------| ---------------|---------------|-------------------|
|----------------| ---------------|---------------|-------------------|

Guitar 2 (rhythm)
The actual rhythm is hard to tab but if you listen to the song you’ll get it right…
|-----------------|-----------------|------------------|
|-----------------|-----------------|------------------|
|-----------------|-----------------|--------2---------|
|-------2---------|--------4--------|--------2---------|
|-------2---------|--------4--------|--------0---------|
|-------0---------|--------2--------|------------------|

|----------------|-----------------|------------------|-------------------|
|----------------|-----------------|------------------|-------------------|
|----------------|-----------------|--------2---------|-------------------|
|-------2--------|--------4--------|--------2---------|--------2----------|
|-------2--------|--------4--------|--------0---------|--------2----------|
|-------0--------|--------2--------|------------------|--------0----------|

| | -------------------------------------------------------------------| |
| |           VERSE1
| | -------------------------------------------------------------------| |

                               *BASS ONLY*


| | -------------------------------------------------------------------| |
| |                            REFRAIN
| | -------------------------------------------------------------------| |

Guitar 1

|---------|---------|------|--------|--------|--------|-------|----------|
|---------|---------|------|--------|--------|--------|-------|----------|
|---------|---------|--- 6-|6-------|--------|--------|-----6-|-6--------|
|---------|---------|------|--6-4---|--------|--------|-------|----------|
|-4- 6-7--|-0--6-7--|------|-----7-6|-4--6-7-|-0--6-7-|-------|----------|
|---------|---------|0-----|--------|--------|--------|-0-----|----------|

Guitar 2
|--------|---------|-------|--------|--------|--------|-------|----------|
|--------|---------|-------|--------|--------|--------|-------|----------|
|---6----|----2----|-------|---4----|---6----|---2----|-------|4-4-4-4-4-|
|---6----|----2----|---2---|---4----|---6----|---2----|---2---|4-4-4-4-4-|
|---4----|----0----|---2---|---2----|---4----|---0----|---2---|2-2-2-2-2-|
|--------|---------|---0---|--------|--------|--------|---0---|----------|

| | ----------------------------------------------------------------| |
| |                              CHORUS
| | ----------------------------------------------------------------| |

Guitar 1 & 2
These are the notes that are being played at the chorus, but listen to the song to get 
rhythm right…
|-------|--------|----------------|--------|--------|--------|-----------|
|-------|--------|----------------|--------|--------|--------|-----------|
|-------|--------|---2------------|--------|--------|----2---|-----------|
|--2----|---4----|---2------6-7-9-|---2----|---3----|----2---|-----2-----|
|--2----|---4----|---0------6-7-9-|---2----|---3----|----0---|-----2-----|
|--0----|---2----|----------4-5-7-| --0----|---1----|--------|-----0-----|

(PICKSLIDES)

Guitar 1
|---4--0--2--0-----|----4--0-2-0---|---4--0--2—0---|-5--4--0--5--4-2-0|
|-0-------------2--|-0-----------2-|-0-----------0-|------------------|
|------------------|---------------|---------------|------------------|
|------------------|---------------|---------------|------------------|
|------------------|---------------|---------------|------------------|
|------------------|---------------|---------------|------------------|

Guitar 2
(SAME AS PLAYED 1ST TIME)


| | ----------------------------------------------------------------| |
| |             VERSE2
| | ----------------------------------------------------------------| |

          (SAME AS VERSE 1)


| | ----------------------------------------------------------------| |
| |                           REFRAIN
| | ----------------------------------------------------------------| |

| | ----------------------------------------------------------------| |
| |                           CHORUS
| | ----------------------------------------------------------------| |
(PICKSLIDES)

| | ----------------------------------------------------------------| |
| |                            SOLO
| | ----------------------------------------------------------------| |

Guitar 1
|0-0-0-0-------0-0-0-0-2-2-2-2-|-0-0-0-0--------0-0-0-0-2-2-2-2-|
|-------4-4-4-4----------------|--------4-4-4-4-----------------|
|------------------------------|--------------------------------|
|------------------------------|--------------------------------|
|------------------------------|--------------------------------|
|------------------------------|--------------------------------|

|0-0-0-0-----------------------|--------------------------------|
|-------4-4-4-4-2-2-2-2-0-0-0-0|------------------------0-0-0-0-|
|------------------------------|2-2-2-2-1-1-1-1-2-2-2-2---------|
|------------------------------|--------------------------------|
|------------------------------|--------------------------------|
|------------------------------|--------------------------------|

|12-12-12-12-11-11-11-11-12-12-12-12-14-14-14-14-|
|------------------------------------------------|
|------------------------------------------------|
|------------------------------------------------|
|------------------------------------------------|
|------------------------------------------------|

|12-12-12-12-11-11-11-11-12-12-12-12-14-14-14-14-|
|------------------------------------------------|
|------------------------------------------------|
|------------------------------------------------|
|------------------------------------------------|
|------------------------------------------------|

|12-12-12-12—11-11-11-11-------------------------|
|-----------------------14-14-14-14—12-12-12-12--|
|------------------------------------------------|
|------------------------------------------------|
|------------------------------------------------|
|------------------------------------------------|

|10-10-10-10-------------------------------------|
|-----------13-13-13-13-11-11-11-11-8-8-8-8-9----|(let ring)
|------------------------------------------------|
|------------------------------------------------|
|------------------------------------------------|
|------------------------------------------------|

Guitar 2
(SAME AS PLAYED IN CHORUS)


| | -------------------------------------------------------------| |
| |                              REFRAIN
| | -------------------------------------------------------------| |

Guitar 1

    (play nothing)
The post card that you wrote with the stupid little note
|-----------------------------------| --------------------------|
|-----------------------------------|-------------7—9—7---------|
|-----------------------------------|------8----------------9—8-|
|-----------------------------------|---------------------------|
|-----------------------------------|---------------------------|
|-----------------------------------|---------------------------|
Something wasn’t quite right            about it

|-----------------------------------|---------------------------|
|-----------------------------------|-----5---------------------|
|---6-------------------------------|----------------------4----|
|-----------------------------------|-------------------------6-|
|-----------------------------------|---------------------------|
|-----------------------------------|---------------------------|
It smelled like chick perfume     and it didn’t smell like you

|-------------------------------------|
|-------------------------------4-----|
|-4-----------------------------------|
|-------------------------------------|
|-------------------------------------|
|-------------------------------------|
There is no way you can get around it

Guitar 2
(SAME WAY PLAYED IN PREVIOUS REFRAINS)


| | ---------------------------------------------------------------| |
| |                            CHORUS
| | ---------------------------------------------------------------| |

(DON’T PLAY WHEN THESE 3 LINES ARE SUNG)

I wish you were her
You left out the ‘e’
You left without me

(CONTINUE AS NORMAL)


(REPEAT CHORUS)
Guitar 1 plays solo
Guitar 2 plays as normal


| | -------------------------------------------------------------------| |
| |                                OUTRO
| | -------------------------------------------------------------------| |
end on:

guitar 1
|-------0------|
|-------0------|
|-------x------|
|-------x------|
|-------x------|
|-------x------|
                       (KEEP PLAYING THESE NOTES UNTIL THE VERY END)
guitar 2
|--------------|
|--------------|
|--------------|
|------2-------|
|------2-------|
|------0-------|


Thats it!

enjoy!
            
Submit corrections

comments powered by Disqus
↑ Back to top | Avril Lavigne Tabs for Everything Back But You. Lyrics for acoustic guitar and electric guitar. 1 Tablatures and chords are parodies/interpretations of the original songs. You may use it for private study, scholarship, research or language learning purposes only