» » »

Everything Back But You Ukulele Chords (ver.1)

Artists:  A B C D E F G H I J K L M N O P Q R S T U V W X Y Z # 

Everything Back But You Ukulele Chords (ver.1)

Avril Lavigne
Rating:
0/5 (0 votes)

Hard to play? Try these video lessons and learn fast.
                Avril Lavigne
Everything Back But You (Preview)
The Best Damn Thing
This song's intro sound like NEW FOUND GLORY's SOMETHING I CALL PERSONALITY. A big 
and the drum beats.

Tuning: Standard EADGBe

Chords used:
E -   022100
F#m - 244222
A -   x02220
B -   x24442
C#m - x46654

Intro: E-F#m-A (x2)

Guitar 2:
e|-----4---2-0--|----5-4-0-5-4-
B|---0---0------|--0-----------
G|-1------------|--------------
D|--------------|-------------- (x2)
A|--------------|--------------
E|--------------|--------------
        x3


Verse 1:
  E
Today was the worst day
  F#m
I went through hell
  A                              B
I wish I could remove it from my mind
E
Two months away from you
    F#m
But I couldn't tell
  A                                         B
I thought that everything was gonna be just fine


Refrain:
    C#m
The post card that you wrote
          A
with the stupid little note
E                             B
Something wasn't quite right about it
   C#m
It smelled like chick perfume
       A
And it didn't smell like you
         E                   B
There is no way you can get around it
  A(hold)
Because you wrote


Chorus:
  E
I wish you were here
    F#m
You left out the 'e'
    A
You left without me and now you're somewhere out there
         E
with the b**ch! sl*t! psycho! babe!
  F#m
I hate you why are guys so lame?
A
Everything I gave you I want everything back but you


(Repeat Intro once)


Verse 2:
   E                        F#m
My friends tried to tell me all along
     A                             B
that you weren't the right one for me
   E                        F#m
My friends tried to tell me to be strong
  A                                 B
I bet you didn't think that I would see


Bass Riff: before refrain 2:
G|-1-----|
D|---4-2-|
A|-------|
E|-------|


Refrain 2:
    C#m
The post card that you wrote
          A
with the stupid little note
    E                             B
but something wasn't quite right about it
  C#m
I want to see you cry
       A
like I did a thousand times
E                                  B
Now you're losing me you're losing me now
  A
Because you wrote


(Repeat Chorus)


Bridge: E-F#m-A (x2)

Guitar 2:
e|-0-0-----0-0-2-2-|-0-0-----------------------------
B|-----4-4---------|-----4-4-2-2-0-0-------------0-0-
G|-----------------|-----------------2-2-1-1-2-2-----
D|-----------------|---------------------------------
A|-----------------|---------------------------------
E|-----------------|---------------------------------
         x3
then
e|-12-12-11-11-12-12-14-14-|-12-12-11-11-9-9-7-7-5-5-4-4-2-2-----
B|-------------------------|---------------------------------4-4-
G|-------------------------|-------------------------------------
D|-------------------------|-------------------------------------
A|-------------------------|-------------------------------------
E|-------------------------|-------------------------------------
         x3

(Repeat Refrain 1 and Chorus twice)


Outro: E all throughout!!!
            
Hard to play? Try these video lessons and learn fast. | Correct




comments powered by Disqus
↑ Back to top | Tablatures and chords are parodies/interpretations of the original songs. You may use it for private study, scholarship, research or language learning purposes only