>
 >
Arcarsenal

Arcarsenal Guitar Tabs

At The Drive-In - Arcarsenal chords, tabs, tablatures, lyrics

Guitar lessons | Add/correct | Request | Top 50 tabs Artists:  A B C D E F G H I J K L M N O P Q R S T U V W X Y Z 0-9

Arcarsenal Guitar Tabs – At The Drive-In

CD, Sheet music, Poster

Do you like Arcarsenal? Share with your friends now
Bass TabsTabsTabs v2Tabs v3
At the Drive in: Arc Arsenal


guitar 1
e|-------15--------------
b|-15-14----15-17--------
g|-----------------------
d|-----------------------
a|-----------------------
E|-----------------------

guitar 2 (Play this twice) 
e|---------------------------------------------------------------|
b|---------------------------------------------------------------|
g|---------------------------------------------------------------|
d|-4-5-4-------4-5-4---------------------------------------------|
a|--------5~----------7------------------------------------------|
E|---------------------------------------------------------------|

guitar 2 after above, play this part twice
e|--------------------------------------------------------------------|
b|-12-------12-------15-14--------------------------------------------|
g|----14-------14----------14-----------------------------------------|
d|-------14-------14--------------------------------------------------|
a|--------------------------------------------------------------------|
E|--------------------------------------------------------------------|

-->(pause where only the bass is playing)

both guitars (or can be played with just one) play this 4 times
e|-------------------------------------------------------------------|
b|-------------------------------------------------------------------|
g|-7(hit once and slide to this)9-9-9-9-9----------------------------|
d|-7(hit once and slide to this)9-9-9-9-9----------------------------|
a|-5(hit once and slide to this)7-7-7-7-7----------------------------|
E|-------------------------------------------------------------------|


This isnt exaclt correct but i didnt try my hardest with it....

(I must've read a thousand faces! i must've robbed them of their cause!)
 guitar 1 (only play this through one time, so try to keep pace with the song)
e|-------------------------------------------------------12-----------------------------|
b|-12-------12----------12-------12----------12-------12----12-----12-------12----------|
g|----14-------12-11-12----14-------12-11-12----14-------------12-----14-------12-11-12-|
d|-------14-------------------14-------------------14--------------------14-------------|
a|--------------------------------------------------------------------------------------|
E|--------------------------------------------------------------------------------------|


(I must've read a thousand faces! i must've robbed them of their cause!)
 guitar 2 play this part 4 times
e|-----------------------------------------------------------------|
b|-----------------------------------------------------------------|
g|-9-9-9-9-9-7-7---------------------------------------------------|
d|-9-9-9-9-9-7-7-5-------------------------------------------------|
a|-7-7-7-7-7-5-5-5-------------------------------------------------|
E|---------------3-------------------------------------------------|

(BEWARE!)
both guitars (or can be played with just one) play this 4 times
e|-------------------------------------------------------------------|
b|-------------------------------------------------------------------|
g|-7(hit once and slide to this)9-9-9-9-9----------------------------|
d|-7(hit once and slide to this)9-9-9-9-9----------------------------|
a|-5(hit once and slide to this)7-7-7-7-7----------------------------|
E|-------------------------------------------------------------------|


(I must've read a thousand faces! all these voices wont give up!)
 guitar 1 (only play this through one time, so try to keep pace with the song)
e|----------------------------------12----------------------------|
b|-12-------12----------12-------12----12-----12-------12---------|
g|----14-------12-11-12---14-------------12-----14-------12-11-12-|
d|-------14------------------14--------------------14-------------|
a|----------------------------------------------------------------|
E|----------------------------------------------------------------|

(I must've read a thousand faces! i must've robbed them of their cause!)
 guitar 2 play this part 3 times
e|-----------------------------------------------------------------|
b|-----------------------------------------------------------------|
g|-9-9-9-9-9-7-7---------------------------------------------------|
d|-9-9-9-9-9-7-7-5-------------------------------------------------|
a|-7-7-7-7-7-5-5-5-------------------------------------------------|
E|---------------3-------------------------------------------------|


(BEWARE!)
both guitars (or can be played with just one) play this 4 times
e|-------------------------------------------------------------------|
b|-------------------------------------------------------------------|
g|-7(hit once and slide to this)9-9-9-9-9----------------------------|
d|-7(hit once and slide to this)9-9-9-9-9----------------------------|
a|-5(hit once and slide to this)7-7-7-7-7----------------------------|
E|-------------------------------------------------------------------|

 Doesnt matter which guitar plays this part. Although im pretty sure 
 there are 2 i can only make this out....
 (PLay this 5 times, work out the strumming to match with the song)
e|------------------------------------------------------------------|
b|------------------------------------------------------------------|
g|-----7-7-7-7-7-7-7-7-----9-9-9-9-9-9-9-9--------------------------|
d|-5-4-7-7-7-7-7-7-7-7-5-4-9-9-9-9-9-9-9-9--------------------------|
a|-----5-5-5-5-5-5-5-5-----7-7-7-7-7-7-7-7--------------------------|
E|------------------------------------------------------------------|

 Once again it doesnt matter which guitar, i suggest using palm muting on this part.
e|-----------------------------------------------------------------------------------------|
b|-----------------------------------------------------------------------------------------|
g|-----------------------------------------------------------------------------------------|
d|-----------------------------------------------------------------------------------------|
a|--------12-------12---12-------10-------10---10-------9--------9---9-------7-------7---7-|
E|--0-0-0----0-0-0----0----0-0-0----0-0-0----0----0-0-0----0-0-0---0---0-0-0---0-0-0---0---|

guitar 1
(no guitar 2 during this because he is playing piano at this part)
(play this 13 or 14 times)
e|-------15--------------
b|-15-14----15-17--------
g|-----------------------
d|-----------------------
a|-----------------------
E|-----------------------

(Have you ever?)
(BEWARE!)
both guitars (or can be played with just one) play this 8 times
e|-------------------------------------------------------------------|
b|-------------------------------------------------------------------|
g|-7(hit once and slide to this)9-9-9-9-9----------------------------|
d|-7(hit once and slide to this)9-9-9-9-9----------------------------|
a|-5(hit once and slide to this)7-7-7-7-7----------------------------|
E|-------------------------------------------------------------------|





Comments


Popular At The Drive-In tabs & chords
A Devil Among The Tailors Bass Tabs
One Armed Scissor Bass Tabs
Shaking Hand Incision Bass Tabs
Speechless Bass Tabs
Catacombs 1 Tabs
Extracurricular Tabs
Give It A Name Tabs
Incetardis Tabs
Lobsided Correct Tabs
Shaking Hand Inscision Tabs


Song lyrics



↑ Back to top | Tablatures and chords are parodies/interpretations of the original songs. You may use it for private study, scholarship, research or language learning purposes only
© 2014 AZChords.com Contact us | Privacy policy | DMCA | Add/correct tabs | Request tabs | Top 50 tabs