» » »

At The Drive-In, Arc Arsenal Bass tabs (ver.1)

Artists:  A B C D E F G H I J K L M N O P Q R S T U V W X Y Z # 

Arc Arsenal Bass tabs (ver.1)

At The Drive-In Tabs
Rating:
0/5 (0 votes)
Hard to play? Try these video lessons and learn fast.
                Intro(0:38)
G----------------------------------
D----------------------------------
A-5h7--7-7-77----5h7--7-7-77-------1time
E-----------------------------0----

Pre-Verse:
G----------------------*|         ---------------------
D----------------------*|         ---------------------
A-5h7--7-7-777---7-----*|3times   ---5h7--7-7-77-------1time
E-------------000-000--*|         ---------------------

Verse
G--------------------------------------------------------------------*|
D--------------5h7p5--------------------------5h7p5------------------*|
A-7-7-7-7-7-7-7------------------7-7-7-7-7-7-7-----------------------*|2times
E-------------------5-55-3-3-333-------------------5-5-55-7-7-7777---*|

Pre-Verse:
G----------------------*|         ---------------------
D----------------------*|         ---------------------
A-5h7--7-7-777---7-----*|3times   ---5h7--7-7-77-------1time
E-------------000-000--*|         ---------------------

Verse
G--------------------------------------------------------------------*|
D---------------------------------------------5h7p5------------------*|
A-7-break-1st-time---------------7-7-7-7-7-7-7-----------------------*|2times
E-------------------5-55-3-3-333-------------------5-5-55-7-7-7777---*|

Pre-Verse-variation:
G----------------------*|         ---------------------
D----------------------*|         ---------------------
A-5h7--7-7-777---7-----*|3times   ---5h7--7-7-77-10-9--1time
E-------------000-000--*|         ---------------------

Part I:
G-----------------------------*|        
D-----------------------------*|         
A-5>-/12>---10-9---7>---10-9--*|4times 
E-----------------------------*|         

Part II:
G-------------------------------------------------        
D---77--7--7---55--5--5---44--4--4---22--2--2-----         
A-------------------------------------------------1 time
E-00--00-00--00--00-00--00--00-00--00--00-00------   

Part III: 

G---------------------------*|        
D---------------------------*|         
A-5>-/12>-10>-9>---7>-7>----*|4times 
E---------------------------*|        

end:
G----------------------*|         ---------------------                  ---
D----------------------*|         ---------------------                  ---
A-5h7--7-7-777---7-----*|7times   ---5h7--7-7-77-------1time - end with  ---
E-------------000-000--*|         ---------------------                  -0-
            

comments powered by Disqus
↑ Back to top | At The Drive-In Bass for Arc Arsenal. Lyrics for acoustic guitar and electric guitar. Tablatures and chords are parodies/interpretations of the original songs. You may use it for private study, scholarship, research or language learning purposes only