» » »

Arc Arsenal Tabs (ver.3)

Artists:  A B C D E F G H I J K L M N O P Q R S T U V W X Y Z # 

Arc Arsenal Tabs (ver.3)

At The Drive-In
Rating:
0/5 (0 votes)

Tabs too difficult? Try these video lessons and learn fast.
                riff 1
e ----------------------15------------------
b ---------15---14---------15---17----------
g ------------------------------------------            repeat 
d ------------------------------------------
a ------------------------------------------
d ------------------------------------------

riff 2

e -----12-------x---x-----x------12---------
b -----12-------x-- x-----x------12---------
g ------9-------x---x-----x-------9---------            fast and furious
d ------9-------x---x-----x-------9---------
a -----10-------x---x-----x------10---------
d ------0-------x---x-----x-------0---------

riff 3

e ------------------------------------------
b -12----10-----------------8-8--10-10-10---
g ----------------9----12-11----------------
d ------------------------------------------
a ------------------------------------------
d ------------------------------------------

bridge

e ------------------------------------------
b ------------------------------------------
g ------------------------------------------
d --5--4------------------------------------
a ---------5--5--5--5--5--5--5--5--5--------
d ------------------------------------------

e ------------------------------------------
b ------------------------------------------
g ------------------------------------------
d ------------------------------------------
a --5--4--2--2--2--2--2--2--2--2--2---------
d ------------------------------------------

e ------------------------------------------
b ------------------------------------------
g ---x-----14------x------14------x------14-
d ---x------x------x-------x------x-------x-
a ---x-----12------x------12------x------12-
d ---0------0------0-------0------0-------0-


e ------------------------------------------
b ------------------------------------------
g ---x-----12------x------12------x------12-
d ---x------x------x-------x------x-------x-
a ---x-----10------x------10------x------10-
d ---0------0------0-------0------0-------0-


e ------------------------------------------
b ------------------------------------------
g ---x-----11------x------11------x------11-
d ---x------x------x-------x------x-------x-
a ---x------9------x-------9------x-------9-
d ---0------0------0-------0------0-------0-


e ------------------------------------------
b ------------------------------------------
g ---x------9------x-------9------x-------9-
d ---x------x------x-------x------x-------x-
a ---x------7------x-------7------x-------7-
d ---0------0------0-------0------0-------0-
            
Tabs too difficult? Try these video lessons and learn fast.


comments powered by Disqus
↑ Back to top | Tablatures and chords are parodies/interpretations of the original songs. You may use it for private study, scholarship, research or language learning purposes only