» » »

Arc Arsenal Bass tabs (ver.2)

Artists:  A B C D E F G H I J K L M N O P Q R S T U V W X Y Z # 

Arc Arsenal Bass tabs (ver.2)

At The Drive-In
Rating:
4/5 (1 vote)

Tabs too difficult? Try these video lessons and learn fast.
                Gotta be honest, was taken from another site. But thought would be helpful to be 
up on here too, for whoever wanting to learn it without GuitarPro or PowerTab... Like me. :)
So thanks to whoever it was who actually tabbed it out, only thanks I'd like are 
for copying & pasting it here.
By the way... It's an AMAZING song to play! ;)




intro
G|-----------------------|
D|-----------------------|
A|-----------------------|
E|-0---------------------|

intro 2                4x
G|-----------------------|
D|-----------------------|
A|-----2-0---------------|
E|-0---------3-2-0---3-5-|

  riff 1
G|---------------------------------------|
D|---------------------------------------|
A|-5-7--7-7-5-7------5-7--7-7-5-7--------|
E|---------------------------------0-0-0-|

  riff 2                                              2x
G|------------------------------------------------------|
D|------------------------------------------------------|
A|-5-7--7-7-5-7---------------5-7--7-7-5-7--------------|
E|--------------0-0--0-0--0-0--------------0-0--0-0-0--0|
  
  last time
G|------------------------------------------------------|
D|------------------------------------------------------|
A|-5-7--7-7-5-7---------------5-7--7-7-5----------------|
E|--------------0-0--0-0--0-0------------0--------------|


  verse 1                                           2x
G|----------------------------------------------------|
D|----------------------------------------------------|
A|-7--7-7--7--7-7-7--5h7-5----------------------------|
E|-------------------------5--5-5-5-3--3-3-3--3-3-3-5-|

G|----------------------------------------------------|
D|----------------------------------------------------|
A|-7--7-7--7--7-7-7--5h7-5----------------------------|
E|-------------------------5--5-5-5-7--7-7-7--7-7-7-7-|


  riff 2                                              4x
G|------------------------------------------------------|
D|------------------------------------------------------|
A|-5-7--7-7-5-7---------------5-7--7-7-5-7--------------|
E|--------------0-0--0-0--0-0--------------0-0--0-0-0--0|


  verse 2
G|----------------------------------------------------|
D|----------------------------------------------------|
A|----------------------------------------------------|
E|-0-----------------------5--5-5-5-3--3-3-3--3-3-3-5-|

G|----------------------------------------------------|
D|----------------------------------------------------|
A|-7--7-7--7--7-7-7--5h7-5----------------------------|
E|-------------------------5--5-5-5-7--7-7-7--7-7-7-7-|


  riff 2                                              4x
G|------------------------------------------------------|
D|------------------------------------------------------|
A|-5-7--7-7-5-7---------------5-7--7-7-5-7--------------|
E|--------------0-0--0-0--0-0--------------0-0--0-0-0--0|


  riff 3                                         4x
G|-------------------------------------------------|
D|-------------------------------------------------|
A|-9h10-9-5--5-5--5-5--5--5-5-/12--12-12--12-12-12-|
E|-------------------------------------------------|

G|----------------------------------------------|
D|----------------------------------------------|
A|-9h10-9-7--7-7--7-7--7--7-5h7--7-7-7-5h7--7-7-|
E|----------------------------------------------|



  riff 4
G|-----------------------------------------------------------------------|
D|-----------------------------------------------------------------------|
A|-----------------------------------------------------------------------|
E|-0-0-0-17-17-17-0-0-0-17-17-17-0-0-17-17-0-0-0-15-15-15-0-0-0-15-15-15-|

G|------------------------------------------------------------------------|
D|------------------------------------------------------------------------|
A|------------------------------------------------------------------------|
E|-0-0-15-15-0-0-0-14-14-14-0-0-0-14-14-14-0-0-14-14-0-0-0-12-12-12-0-0-0-|

G|--------------------|
D|--------------------|
A|--------------------|
E|-12-12-12-0-0-12-12-|


  riff 5
G|----------------------------------------------------------------------|
D|----------------------------------------------------------------------|
A|-5-5-5-5-5-5-5-5-5-5-5-5-/12-12-12-12-12-12-12-12-10-10-10-10-9-9-9-9-|
E|----------------------------------------------------------------------|

G|---------------------------------------------------------|
D|---------------------------------------------------------|
A|-7-7-7-7-7-7-7-7-7-7-7-7-7-7-7-7-7-7-7-7-7-7-7-7-9-9-9-9-|
E|---------------------------------------------------------|
            
Tabs too difficult? Try these video lessons and learn fast.


comments powered by Disqus
↑ Back to top | Tablatures and chords are parodies/interpretations of the original songs. You may use it for private study, scholarship, research or language learning purposes only