» » »

The Peoples Elbow Tabs (ver.3)

Artists:  A B C D E F G H I J K L M N O P Q R S T U V W X Y Z # 

The Peoples Elbow Tabs (ver.3)

Attack Attack
Rating:
0/5 (0 votes)

Hard to play? Try these video lessons and learn fast.
                (2)
Tuning:C#,G#,C#,F#,A#,D#

Intro:
------------------------------|
-----------------111111111111-|
-----------------141414141414-|x2
------------------------------|
---00000-0-x2-----------------|
---00000-0--------------------|


Verse:
-------------------------------------------|
-------------------------------------------|         Figure out strumming Pattern
-------------------------------------------|
-8---10---------------3333333--------------|x2
-8---10------00-00-0--7777777-8888^--------|
-8---10------00-00-0-----------------------|

-------|
-------|
-------|
---0---|
---0~--|
---0---|

----------------------------------------------|
--11-11-11-11-11-11-11-11---------------------|
--14-14-14-14-14-14-14-14---------------------|
----------------------------------------------|x4
----------------------------0000-0000---------|
----------------------------0000-0000---------|

--------------------|
--------------------|
--------------------|
--0~-----0--8--5----|    (Figure Out Strumming Pattern)
--0~x1---0--8--5-x4-|
--0~-----0--8--5----|

----------------------------------|
-----------------1111---1111------|
-----------------1414---1414------|
----------------------------------|x2
-000-000-x2--0------0-------------|
-000-000-----0------0-------------|

--------------------------------|
--------------1111---1111-------|
--------------1414---1414-------|
--------------------------------|x2
-00-00--x2--0------0------------|
-00-00------0------0------------|

--------|
--------|
--------|
----0---|
----0~--|
----0---|

-----------------|
-----------------|
-----------------|
-0-8-5------0----|
-0-8-5-x4---0~---|
-0-8-5------0----|


Repeat Intro


There you have it. If you have any more request for Attack Attack's songs just hit me up at
            
Hard to play? Try these video lessons and learn fast. | Correct




comments powered by Disqus
↑ Back to top | Tablatures and chords are parodies/interpretations of the original songs. You may use it for private study, scholarship, research or language learning purposes only